Oasis - Morning Glory Live tab

Intro Lead guitar |----------| |----------| |-3-3-3-3b-| |----------| x8 |----------| |----------|
Rhythm rhythm guitar |-----3--2--3-2-| |-----3--3--3-3-| |-0---0--2--2-2-| |-2---2--0--0-0-| x3 |-2-------------| |-0-------------|
|-----3-2--3-2-2-3-| |-----0--------0---| |-----3-3--3-3-3-3-| |---3---3----3---3-| |-0---0-2--2-2-2-2-| |-2----------------| |-2---2-0--0-0-0-0-| x4 |-2--------2-------| |-2----------------| |----------3-------| |-0----------------| |------------------|
Verse (lead) |-----3--2--3-2-| |-----0-------0---| |-----3--3--3-3-| |---3---3---3---3-| |-0---0--2--2-2-| |-2---------------| |-2---2--0--0-0-| x3 |-2-------2-------| |-2-------------| |---------3-------| |-0-------------| |-----------------|
|-----3--2---| |-----0-------0---| |-----3--3---| |---3---3---3---3-| |-0---0--2---| |-2---------------| |-2---2--0---| |-2-------2-------| x4 |-2----------| |---------3-------| |-0----------| |-----------------|
Pre-Chorus Dsus2 Cadd9 Dsus2 Cadd9 Dsus2 Cadd9 Dsus2 Badd11 (x21200) Chorus Em7 D Em7 D Em7 D A(x02230) Cadd9
|-----3--2--3-2-| |-----0-------0---| |-----3--3--3-3-| |---3---3---3---3-| |-0---0--2--2-2-| |-2---------------| |-2---2--0--0-0-| x3 |-2-------2-------| |-2-------------| |---------3-------| |-0-------------| |-----------------|
This is played in the background of the chorus twice. The intro bit is played again x4
Solo |------------------------------------------------------------------| |-12-12h13p12------------------------------------15-----15---------| |-------------14-12-14-12----------12-14-12--14b----14b----14brp12-| |-------------------------14-12-14---------------------------------| |------------------------------------------------------------------| |------------------------------------------------------------------|
|----------------------| |-------------------------| |-----12~-12~----------12-| |--14---------14-14-12----| |-------------------------| |-------------------------|
|-----------------------------------------------------------------| |-12-12h13p12------------------------------------15-----15-----15-| |--------------14-12-14-12----------12-14-12-14b----14b----14b----| |--------------------------14-12-14-------------------------------| |-----------------------------------------------------------------| |-----------------------------------------------------------------|
|-------------------| |-------------------| |-14brp12-----------| |---------14~--14~~-| |-------------------| |-------------------|
Rhythm Plays this behind solo Em7 D Em7 D Em7 D A(x02230) Cadd9 This verse is played the same as the verse above
Half way through verse this is played |----------------------------| |----------------------------| |-------12-14-14brp12--------| |-12-14---------------14-14~-| |----------------------------| |----------------------------| and he repeats this and the end of the verse also
Pre-Chorus is the same as above Chorus is the same as above until the end of the song
Outro solo |------------------------------------------------------| |------------------------------------------------------| |-11-11br-------11br----------------12-14-b----r-12----| |---------14-14------14-12-14-12-14-----------------14-| x2 |------------------------------------------------------| |------------------------------------------------------|
|-----------------------------------------------------------------------| |-----------------------------------------------------------------------| |-----0h2p0h2p0-----0h2p0h2p0-----0h2p0h2p0-----0h2p0h2p0-----0h2p0h2p0-| |-0h2-----------0h2-----------0h2-----------0h2-----------0h2-----------| |-----------------------------------------------------------------------| |-----------------------------------------------------------------------|
|------------------------------------| |------------------------------------| |-----0h2p0h2p0-----0h2p0--2br-0-2b~-| |-0h2-----------0h2------------------| |------------------------------------| |------------------------------------|
|---------------------------------------------------------------------| |---------------------------------------------------------------------| |-----0h2p0h2p0-----0h2p0h2p0-----0h2p0h2p0-----0h2p0h2p0-----0-----0-| |-0h2-----------0h2-----------0h2-----------0h2-----------0h2---0h2---| |---------------------------------------------------------------------| |---------------------------------------------------------------------|
|----------------------------------| |----------------------------------| |-2br-0-2~--0-2-0--2b-2-0----------| |--------------------------2-0-----| |------------------------------2---| |--------------------------------0-|
|----------------------------------| |----------------------------------| |--------------------7-9--9br--10b-| |------------5-7-7/9---------------| |----5---5-7-----------------------| |-/7---7---------------------------|
this was tabbed by Athiei Ajuong If you have any recommendations please mail me at a_ajuong@hotmail.com
Tap to rate this tab
 
# A B C D E F G H I J K L M N O P Q R S T U V W X Y Z