Obituary - Turned Inside Out tab

                         OBITUARY - TURNED INSIDE OUT
                         From the Album CAUSE OF DEATH
                         Copyright  RoadRunner Records

                 Author: Alessandro Rossi [alez666@libero.it]

                               13 MAY 2001

NOTE: tune down your guitar a whole brutal step! (D,G,C,F,A,D)
      listen to the song to take the time
      listen to the song for the structure...

Riff 1

|-----------------------------------------------------------------------------||-----------------------------------------------------------------------------||-----------------------------------------------------------------------------||-----------------------------------------------------------------------------||--4-3--------------3-4---------------4---5-----------------4-3---------------||--2-1-0-000-000-0--1-2-000000000000--2-0-3-0-000000000000--2-1-0-000-000-0---|
Riff 2
|-----------------------------------------------------------------------||-----------------------------------------------------------------------||-----------------------------------------------------------------------||-----------------------------------------------------------------------||--4-3--------------3-4--------------4---5------------4-3---------------||--2-1-0-000-000-0--1-2-0-000-000-0--2-0-3-000-000-0--2-1-0-000-000-0---|
end of riff 2
|-----------------||-----------------||-----------------||-----------------||--4-3------4-3---||--2-1------2-1---|
Riff 3
|---------------------------------------------------||---------------------------------------------------||---------------------------------------------------||--------------4--3--------------5--4-----------4---||--2--5--4--3--2--1--2--5--4--3--3--2--2--5--4--2---||--0--3--2--1--------0--3--2--1--------0--3--2------|
Riff 4
|---------------------------------------------------||---------------------------------------------------||---------------------------------------------------||--------------------------------------5--4---------||--2--5--4--3--5--4--3--5--4--3--4--5--3--2--4--3---||--0--3--2--1--3--2--1--3--2--1--2--3--------2--1---|
Riff 5 (under the solo)a)|-----------------------------------------------------------------------||-----------------------------------------------------------------------||-----------------------------------------------------------------------||-----------------------------------------------------------------------||--2222222222222222-----------------------------------------------------||-------------------4444444444444444-2222222222222222-3333333333333333--|
b)|---------------||---------------||--4------------||--2--6--4--5---||--2--4--2--3---||-----4--2--3---|
end of riff 5
|-------||-------||-------||-------||--2----||--0----|<----here a pause....
Riff 6
|----------------------------------------------||----------------------------------------------||----------------------------------------------||--5---------------------3---------------------||--3-5-------------------1-3---------------3---||----3--0-1-3-1-0-0-0-0----1--0-1-3-1-0-0--1---|
Riff 7a)|------------------||------------------||------------------||------------------||--4---5---4---3---||--2---3---2---1---|
b)|----------------------------------------||----------------------------------------||----------------------------------------||----------------------------------------||----------------------------------------||--22222222-33333333-22222222-11111111---|
c)
|------------------------||------------------------||------------------------||------------------------||------------------------||--2222-3333-2222-1111---|
end of riff 7
|--------------||--------------||--------------||--------------||--4-----------||--2-----------| ^------------------here a pause....
Riff 8a)|--------------------||--------------------||--------------------||--3-4------5--------||--1-2--4-5-3--6-5---||-------2-3----4-3---|
b)|----------------------------------------------------------------------------||----------------------------------------------------------------------------||----------------------------------------------------------------------------||--3-------------------------------------------------------------------------||--1-222222222222-----------333333333333-------------------------------------||-----------------2222-3333--------------4444444444444444-3333333333333333---|
Riff 9
|----------------------------||----------------------------||----------------------------||--6------------5-----4------||--4---------5--3--4--2--3---||-----0-0-0--3-----2-----1---|
Riff 10
|---------------------------------------------------------||---------------------------------------------------------||---------------------------------------------------------||---------------------------------------------------------||--222222222222--------------000000000000-----------------||---------------111111111111--------------222222-333333---|
END. that's all guys....obituary rules this motherfucking world.... for any suggestions, insults or other, mail me at alez666@libero.it I think that this tab is good, but if u find something mail me!!!
Tap to rate this tab
 
# A B C D E F G H I J K L M N O P Q R S T U V W X Y Z