Odious Mortem - Cerebral Dissection tab

--- ODIOUS MORTEM --- 
                           "Cerebral Dissection" 
                     From album: "Devouring The Prophecy" 
                     

                            TABULATURE LEGEND: 
                   " - tremolo             h - hammer on            
                   ~ - vibrato             \ - slide down 
                   p - pull off            / - slide down 
                  tr - tremolo picking     ^ - pinch harmonics      
                   = - sustained note      b - bend string          
                p.m. - palm muting         t - tapping 

TUNING: C# G# C# F# A# D# 

[Riff 1 (x2)] ||-----------------------------------------------|- ||o-------------------------------------------^--|- ||--------------------------------------------1~-|- ||--------------0-2-1-------------------0-2-1----|- ||o-------0-1-2-------0-1-2-------0-1-2----------|- ||--0-1-2-------------------0-1-2----------------|-
| . . . . . . . . . . . . . . . . . . . . . | ||-----------------------------------------------|- ||o-------------------------------------------^--|- ||--------------------------------------------1~-|- ||--------------0-2-1-------------------0-2-1----|- ||o-------0-1-2-------0-1-2-------0-1-2----------|- ||--0-1-2-------------------0-1-2----------------|- . . . . . . . . . . . . . . . . . . . . .
-|--------------------------------------------------|| -|-------------------------------------------------o|| -|-------------------------------------5"...--------|| -|-------------0-2-1-------------------------3"...--|| -|-------0-1-2-------0-1-2-------0-1-2-------------o|| -|-0-1-2-------------------0-1-2--------------------||
| . . . . . . . . . . . . . . . . . . | -|--------------------------------------------------|| -|-------------------------------------------------o|| -|-------------------------------------5"...--------|| -|-------------0-2-1-------------------------3"...--|| -|-------0-1-2-------0-1-2-------0-1-2-------------o|| -|-0-1-2-------------------0-1-2--------------------|| . . . . . . . . . . . . . . . . . .
[Riff 2] |------------------------------------------|- |------------------------------------------|- |-------------------------------------^----|- |-------------------------------------3~---|- |----------------------------------------0-|- |-3h6p3-3h6p3-6h9p6-5h8p5-4h7p4-3h6p3----0-|-
| . | |------------------------------------------|- |------------------------------------------|- |-------------------------------------^----|- |-------------------------------------3~---|- |----------------------------------------0-|- |-3h6p3-3h6p3-6h9p6-5h8p5-4h7p4-3h6p3----0-|- .
-|----------------------------------|- -|--------------------5p0-----------|- -|-------------------------4p0------|- -|------------------------------5p0-|- -|-2-3-4----5-4-3-2-----------------|- -|-3-4-5-00-5-4-3-2-----------------|-
| .. . . . . | -|-------------------12p0-----------|- -|------------------------12p0------|- -|-----------------------------12p0-|- -|----------------------------------|- -|-2-3-4----5-4-3-2-----------------|- -|-3-4-5-00-5-4-3-2-----------------|- .. . . . .
-|--------------------------------------------|- -|--------------------------------------------|- -|---------------------------------------^----|- -|---------------------------------------7~---|- -|------------------------------------------0-|- -|-5h8p5-5h8p5-8h11p8-7h10p7-6h9p6-5h8p5----0-|-
| . | -|--------------------------------------------|- -|--------------------------------------------|- -|---------------------------------------^----|- -|---------------------------------------7~---|- -|------------------------------------------0-|- -|-5h8p5-5h8p5-8h11p8-7h10p7-6h9p6-5h8p5----0-|- .
-|------------------12h15-------------| -|------------------------12h15-------| -|------------------------------12h15-| -|------------------------------------| -|-4-5-6----7-6-5-4-------------------| -|-5-6-7-00-7-6-5-4-------------------|
| .. . . . . | -|------------------15h18-------------| -|------------------------14h17-------| -|------------------------------14h17-| -|------------------------------------| -|-4-5-6----7-6-5-4-------------------| -|-5-6-7-00-7-6-5-4-------------------| .. . . . .
[RIFF 1 (x2)] [RIFF 2]
[Riff 3 (x3)] ||---------------------------------------------|| ||o-------------------------------------------o|| ||----------------------^------------------^---|| ||----------------------5~-----------------5~--|| ||o-------------------------------------------o|| ||--0-5-8-7-6-0-4-7-4-0----0-3-6-0-4-7-2-0-----||
| . . . . . . . . . . . . . . . . . . | ||---------------------------------------------|| ||o-------------------------------------------o|| ||----------------------^------------------^---|| ||----------------------5~-----------------5~--|| ||o-------------------------------------------o|| ||--0-5-8-7-6-0-4-7-4-0----0-3-6-0-4-7-2-0-----|| . . . . . . . . . . . . . . . . . .
[Riff 4 (x2)] ||------------------|-----------------|-----------------|- ||o-----------------|-----------------|-----------------|- ||------------------|-----------------|-----------------|- ||------------------|--------------^--|-----------------|- ||o-3--2--1--3-2-1--|-3--2--1--3-2-1~-|-3--2--1--3-2-1--|- ||--5--4--3--5-4-3--|-5--4--3--5-4----|-5--4--3--5-4-3--|-
| . . . . | . . . . | . . . . | ||------------------|-----------------|-----------------|- ||o-----------------|-----------------|-----------------|- ||------------------|-----------------|-----------------|- ||------------------|--------------^--|-----------------|- ||o-3--2--1--3-2-1--|-3--2--1--3-2-1~-|-3--2--1--3-2-1--|- ||--5--4--3--5-4-3--|-5--4--3--5-4----|-5--4--3--5-4-3--|- . . . . . . . . . . . .
[ending 1] [ending 2] -|-----------------------------|| -|-------------------------------| -|----------------------------o|| -|-------------------------------| -|-----------------------------|| -|-------------------------------| -|-----------------------------|| -|------------------[7t10]-[6t9]-| -|-3--2--1--[5t8]...-[4t7]...-o|| -|-3--2-[5t8]-[4t7]--------------| -|-5--4--3---------------------|| -|-5--4--------------------------|
| . . \pick tapping___/ | | . . \pick tapping__________/ | -|-----------------------------|| -|-------------------------------| -|----------------------------o|| -|-------------------------------| -|-----------------------------|| -|-------------------------------| -|-----------------------------|| -|------------------[7t10]-[6t9]-| -|-3--2--1--[5t8]...-[4t7]...-o|| -|-3--2-[5t8]-[4t7]--------------| -|-5--4--3---------------------|| -|-5--4--------------------------| . . \pick tapping___/ . . \pick tapping__________/
[Outro 1] |---------------------------------------------|- |---------------------------------------------|- |---------------------------------------------|- |---------------------------------------------|- |-----------5h8p5-----------5h8p5-4h7p4-5h8p5-|- |-0-0-4h7p4-------0-0-4h7p4-------------------|-
| . . . . | |---------------------------------------------|- |---------------------------------------------|- |---------------------------------------------|- |---------------------------------------------|- |---------------------------------------------|- |---------------------------------------------|-
-|---------------------------------------------|- -|---------------------------------------------|- -|---------------------------------------------|- -|---------------------------------4h7p4-3h6p3-|- -|-----------5h8p5-----------5h8p5-------------|- -|-0-0-4h7p4-------0-0-4h7p4-------------------|-
| . . . . | -|---------------------------------------------|- -|---------------------------------------------|- -|---------------------------------------------|- -|---------------------------------------------|- -|---------------------------------------------|- -|---------------------------------------------|-
-|---------------------------------------------|- -|---------------------------------------------|- -|---------------------------------------------|- -|---------------------------------------------|- -|-----------5h8p5-----------5h8p5-4h7p4-5h8p5-|- -|-0-0-4h7p4-------0-0-4h7p4-------------------|-
| . . . . | -|---------------------------------------------|- -|---------------------------------------------|- -|---------------------------------------------|- -|-0==========================================-|- -|-0==========================================-|- -|-0==========================================-|-
-|-------------------------------------------| -|-------------------------------------------| -|-------------------------------------------| -|---------------------4h7p6p4-3h6p5p3-1h4p1-| -|-----------5h8p5---------------------------| -|-0-0-4h7p4-------0-0-----------------------|
| . . . . | -|-------------------------------------------| -|-------------------------------------------| -|-------------------------------------------| -|-------------------------------------------| -|-0-------------------6h9p8p6-5h8p7p5-3h6p3-| -|-0-----------------------------------------| .
[Riff 5] |---------------------------------------------|- |---------------------------------------------|- |---------------------------------------------|- |---------------------------------------------|- |-----------5h8p5-----------5h8p5-4h7p4-5h8p5-|- |-0-0-4h7p4-------0-0-4h7p4-------------------|-
| . . . . | |---------------------------------------------|- |---------------------------------------------|- |---------------------------------------------|- |---------------------------------------------|- |-----------5h8p5-----------5h8p5-4h7p4-5h8p5-|- |-0-0-4h7p4-------0-0-4h7p4-------------------|- . . . .
-|---------------------------------------------|- -|---------------------------------------------|- -|---------------------------------------------|- -|---------------------------------4h7p4-3h6p3-|- -|-----------5h8p5-----------5h8p5-------------|- -|-0-0-4h7p4-------0-0-4h7p4-------------------|-
| . . . . | -|---------------------------------------------|- -|---------------------------------------------|- -|---------------------------------------------|- -|---------------------------------4h7p4-3h6p3-|- -|-----------5h8p5-----------5h8p5-------------|- -|-0-0-4h7p4-------0-0-4h7p4-------------------|- . . . .
-|---------------------------------------------|- -|---------------------------------------------|- -|---------------------------------------------|- -|---------------------------------------------|- -|-----------5h8p5-----------5h8p5-4h7p4-5h8p5-|- -|-0-0-4h7p4-------0-0-4h7p4-------------------|-
| . . . . | -|---------------------------------------------|- -|---------------------------------------------|- -|---------------------------------------------|- -|---------------------------------------------|- -|-----------5h8p5-----------5h8p5-4h7p4-5h8p5-|- -|-0-0-4h7p4-------0-0-4h7p4-------------------|- . . . .
-|-------------------------------------------|--------------| -|-------------------------------------------|--------------| -|-------------------------------------------|--------------| -|---------------------4h7p6p4-3h6p5p3-1h4p1-|-----------5--| -|-----------5h8p5---------------------------|-----3--7--5--| -|-0-0-4h7p4-------0-0-----------------------|-0-0-3--7-----|
| . . . . | . . | -|-------------------------------------------|--------------| -|-------------------------------------------|--------------| -|-------------------------------------------|--------------| -|-------------------------------------------|-----------5--| -|-----------5h8p5-----6h9p8p6-5h8p7p5-3h6p3-|-----3--7--5--| -|-0-0-4h7p4-------0-0-----------------------|-0-0-3--7-----| . . . . . .
[Riff 6 (x2)] ||---------------------------------------------------------|- ||o--------------------------------------------------------|- ||--[7t10]-[6t9]-[7t10]-[8t11]-[7t10]-[8t11]-[9t12]-[8t11]-|- ||---------------------------------------------------------|- ||o--------------------------------------------------------|- ||---------------------------------------------------------|-
| \pick tapping________________________________________/ | ||---------------------------------------------------------|- ||o--------------------------------------------------------|- ||--[7t10]-[6t9]-[7t10]-[8t11]-[7t10]-[8t11]-[9t12]-[8t11]-|- ||---------------------------------------------------------|- ||o--------------------------------------------------------|- ||---------------------------------------------------------|- \pick tapping________________________________________/
-|-----------------------------------------------------|- -|-----------------------------------------------------|- -|-[7t10]-[6t9]-[7t10]-[8t11]--------------------------|- -|----------------------------[7t10]-[6t9]-[5t8]-[4t7]-|- -|-----------------------------------------------------|- -|-----------------------------------------------------|-
| \pick tapping_____________________________________/ | -|-----------------------------------------------------|- -|-----------------------------------------------------|- -|-[7t10]-[6t9]-[7t10]-[8t11]--------------------------|- -|----------------------------[7t10]-[6t9]-[5t8]-[4t7]-|- -|-----------------------------------------------------|- -|-----------------------------------------------------|- \pick tapping_____________________________________/
[ending 1] -|----------------------------------------------------------|- -|-[8t11]-[7t10]-[8t11]-[9t12]-[8t11]-[9t12]-[10t13]-[9t12]-|- -|----------------------------------------------------------|- -|----------------------------------------------------------|- -|----------------------------------------------------------|- -|----------------------------------------------------------|-
| \pick tapping__________________________________________/ | -|----------------------------------------------------------|- -|----------------------------------------------------------|- -|-[7t10]-[6t9]--[7t10]-[8t11]-[7t10]-[8t11]-[9t12]--[8t11]-|- -|----------------------------------------------------------|- -|----------------------------------------------------------|- -|----------------------------------------------------------|- \pick tapping_________________________________________/
-|-------------------------------------------------------|| -|-[8t11]-[7t10]-[8t11]-[9t12]--------------------------o|| -|-----------------------------[7t10]-[6t9]-[5t8]-[4t7]--|| -|-------------------------------------------------------|| -|------------------------------------------------------o|| -|-------------------------------------------------------||
| \pick tapping______________________________________/ | -|-------------------------------------------------------|| -|------------------------------------------------------o|| -|-[7t10]-[6t9]--[7t10]-[8t11]---------------------------|| -|-----------------------------[7t10]-[6t9]-[5t8]-[4t7]--|| -|------------------------------------------------------o|| -|-------------------------------------------------------|| \pick tapping______________________________________/
[ending 2] -|----------------------------------------------------------|- -|-[6t9]--[5t8]--[6t9]--[7t10]-[6t9]--[7t10]-[8t11]--[7t10]-|- -|----------------------------------------------------------|- -|----------------------------------------------------------|- -|----------------------------------------------------------|- -|----------------------------------------------------------|-
| \pick tapping__________________________________________/ | -|----------------------------------------------------------|- -|----------------------------------------------------------|- -|-[7t10]-[6t9]--[7t10]-[8t11]-[7t10]-[8t11]-[9t12]--[8t11]-|- -|----------------------------------------------------------|- -|----------------------------------------------------------|- -|----------------------------------------------------------|- \pick tapping_________________________________________/
-|------------------------------------------------------| -|-[6t9]--[5t8]--[6t9]--[7t10]--------------------------| -|-----------------------------[5t8]--[4t7]-[3t6]-[2t5]-| -|------------------------------------------------------| -|------------------------------------------------------| -|------------------------------------------------------|
| \pick tapping______________________________________/ | -|------------------------------------------------------| -|------------------------------------------------------| -|-[7t10]-[6t9]--[7t10]-[8t11]--------------------------| -|-----------------------------[7t10]-[6t9]-[5t8]-[4t7]-| -|------------------------------------------------------| -|------------------------------------------------------| \pick tapping______________________________________/
[Outro 2] |---------------| |---------------| |---------------| |------------2--| |-----5------4--| |-0-0-5--0-0----|
| . . . . | |---------------| |---------------| |---------------| |------------2--| |-----5------4--| |-0-0-5--0-0----| . . . .
[Riff 4 (x2)] /ending 1, ending 2/
[Final end] |-----------------------------------------| |-----------------------------------------||-----------------------------------------| |-----------------------------------------| |-3===================================----| |-5===================================----|
|
|-----------------------------------------| |-----------------------------------------| |-----------------------------------------| |-----------------------------------------| |-3===================================----| |-5===================================----|
END OF SONG
Tap to rate this tab
 
# A B C D E F G H I J K L M N O P Q R S T U V W X Y Z