Odious Mortem - Mortons Neuronoma tab

--- ODIOUS MORTEM ---
                           "Morton's Neuronoma"
                     From album: "Devouring The Prophecy"


                            TABULATURE LEGEND:
                   " - tremolo             h - hammer on
                   ~ - vibrato             \ - slide down
                   p - pull off            / - slide down
                  tr - tremolo picking     ^ - pinch harmonics
                   = - sustained note      b - bend string
                p.m. - palm muting         t - tapping

TUNING: C# G# C# F# A# D#

[Intro]|---------------------||---------------------||---------------------||---------------------||-6---------1-----0-3-||-6-5-5-3-3-1-3-2-0-3-|
| . . . . . . ||---------------------||---------------------||---------------------||---------------------||-6---------1-----0-3-||-6-5-5-3-3-1-3-2-0-3-| . . . . . .
[Riff 1a]||---------------------------------------------------||||o-------------------------------------------------o||||---------------------------------------------------||||---------------------------------------------------||||o-----5---4-------4---3-------3---4-------4---5---o||||--5-8---5---7-4-7---4---6-3-6---3---7-4-7---4---8--||
| . . . . . . . . . . . . . . . . . . . . . . . . |||---------------------------------------------------||||o-------------------------------------------------o||||---------------------------------------------------||||---------------------------------------------------||||o-----5---4-------4---3-------3---4-------4---5---o||||--5-8---5---7-4-7---4---6-3-6---3---7-4-7---4---8--|| . . . . . . . . . . . . . . . . . . . . . . . .
[Riff 1b]|-------------------------------------------------||-------------------------------------------------||-------------------------------------------------||-----5---4-------4---3-------3---4-------4---5---||-------------------------------------------------||-5-8---5---7-4-7---4---6-3-6---3---7-4-7---4---8-|
| . . . . . . . . . . . . . . . . . . . . . . . . ||-------------------------------------------------||-------------------------------------------------||-------------------------------------------------||-------------------------------------------------||-----5---4-------4---3-------3---4-------4---5---||-5-8---5---7-4-7---4---6-3-6---3---7-4-7---4---8-| . . . . . . . . . . . . . . . . . . . . . . . .
[Outro 1]|---------------------------------------------------------------------||---------------------------------------------------------------------||---------------------------------------------------------------------||-----5---4-------4---3---5-------------4-----------------------------||---------------------------6-5-----4-5---5-4-----3-4-----5-----6-----||-5-8---5---7-4-7---4---3-------6-5-----------5-4-----4-5---5-4---6-5-|
| . . . . . . . . . . . . . . . . . . . . . . . . . . . . . . . . . . ||---------------------------------------------------------------------||---------------------------------------------------------------------||---------------------------------------------------------------------||-------------------------5-------------4-----------------------------||-----5---4-------4---3-----6-5-----4-5---5-4-----3-4-----5-----6-----||-5-8---5---7-4-7---4---3-------6-5-----------5-4-----4-5---5-4---6-5-| . . . . . . . . . . . . . . . . . . . . . . . . . . . . . . . . . .
[Riff 2 (x2)||-------------------------------------------------------------------|||o------------------------------------------------------------------|||-------------------------------------------------------------------|||-------------------------------------------------------------------|||o-----5-------5---4-------5---4---3-----------4---3-------3---4----|||--5-8---8-5-8---5---7-4-7---5---4---6-5-8-4-7---4---6-3-6---3---4--|
| . . . . . . . . . . . . . . . . . . . . . . . . . . . . . . . . |||-------------------------------------------------------------------|||o------------------------------------------------------------------|||-------------------------------------------------------------------|||-------------------------------------------------------------------|||o-----5-------5---4-------5---4---3-----------4---3-------3---4----|||--5-8---8-5-8---5---7-4-7---5---4---6-5-8-4-7---4---6-3-6---3---4--| . . . . . . . . . . . . . . . . . . . . . . . . . . . . . . . .
-|----------------------------------------------------------------|-|----------------------------------------------------------------|-|----------------------------------------------------------------|-|----------------------------------------------------------------|-|-5-------5-------5---4-------5---4---3-----------4---3-------3--|-|---8-5-8---8-5-8---5---7-4-7---5---4---6-5-8-4-7---4---6-3-6----|
| . . . . . . . . . . . . . . . . . . . . . . . . . . . . . . . |-|----------------------------------------------------------------|-|----------------------------------------------------------------|-|----------------------------------------------------------------|-|----------------------------------------------------------------|-|-5-------5-------5---4-------5---4---3-----------4---3-------3--|-|---8-5-8---8-5-8---5---7-4-7---5---4---6-5-8-4-7---4---6-3-6----| . . . . . . . . . . . . . . . . . . . . . . . . . . . . . . .
-------------------||------------------o||-------------7-8---||-------------6-7---||---4---5---5-5-6--o||-3---4---8-6-------||
. . . . . . |-------------------||------------------o||-------------7-8---||-------------6-7---||---4---5---5-5-6--o||-3---4---8-6-------|| . . . . . .
[Riff 3 (x2)]||------------------------------------------------------------|||o--------------------------------------------^--------------|||-------------------------------------------2h3--------------|||--4-3-3333-4-3-3333444433332222----------------3-2----------|||o-4-3------4-3------------------3-11112222---------3-2-0-1--|||--4-3------4-3------------------3---------------------------|
| . . . . . . . . . . . |||------------------------------------------------------------|||o--------------------------------------------^--------------|||-------------------------------------------2h3--------------|||--4-3-3333-4-3-3333444433332222----------------3-2----------|||o-4-3------4-3------------------3-11112222---------3-2-0-1--|||--4-3------4-3------------------3---------------------------| . . . . . . . . . . .
-|-----------------------------------------------------||-|----------------------------------------------------o||-|---------------------------------------6h7---10-10---||-|-4-3-3333-4-3-3333444433332222----------------9--9---||-|-4-3------4-3------------------3-4-5-5-----8--------o||-|-4-3------4-3------------------3-4-5-----------------||
| . . . . . . . . . |-|-----------------------------------------------------||-|----------------------------------------------------o||-|---------------------------------------6h7---10-10---||-|-4-3-3333-4-3-3333444433332222----------------9--9---||-|-4-3------4-3------------------3-4-5-5-----8--------o||-|-4-3------4-3------------------3-4-5-----------------|| . . . . . . . . .
[Outro 2]|--------------------------------------------------||--------------------------------------------------||--------------------------------------------------||-4-3---------------------------------444444333333-||-4-3----------------------------------------------||-4-3-6-4-3-5-4-0-4-3-6-4-3-5-4-0-4-3--------------|
| . . . . . . . . . . . . . . . . . . ||--------------------------------------------------||--------------------------------------------------||--------------------------------------------------||-4-3---------------------------------444444333333-||-4-3----------------------------------------------||-4-3-6-4-3-5-4-0-4-3-6-4-3-5-4-0-4-3--------------| . . . . . . . . . . . . . . . . . .
[Riff 4 (x2)]||----------------------------------------------------|||o---------------------------------------------------|||----------------------------------------------------|||----------------------------------------------------|||o-----------------------------4444----66669999------|||--5555555555558888555577776666----3333--------7766--|
| |||----------------------------------------------------|||o---------------------------------------------------|||----------------------------------------------------|||----------------------------------------------------|||o-----------------------------4444----66669999------|||--5555555555558888555577776666----3333--------7766--|
-|------------------------------------------------------------|-|------------------------------------------------------------|-|------------------------------------------------------------|-|------------------------------------------------------------|-|--------------------------------------------------------1---|-|-555555555555888855557777-6-5-4-5-4-3-4-3-0-4-3-2-3-2-1-1---|
| . . . . . . . . . . . . . . . |-|------------------------------------------------------------|-|------------------------------------------------------------|-|------------------------------------------------------------|-|------------------------------------------------------------|-|--------------------------------------------------------1---|-|-555555555555888855557777-6-5-4-5-4-3-4-3-0-4-3-2-3-2-1-1---| . . . . . . . . . . . . . . .
-|---------------------------------------------------|-|---------------------------------------------------|-|---------------------------------------------------|-|---------------------------------------------------|-|-----------------------------4444----66669999------|-|-5555555555558888555577776666----3333--------7766--|
| |-|---------------------------------------------------|-|---------------------------------------------------|-|---------------------------------------------------|-|---------------------------------------------------|-|-----------------------------4444----66669999------|-|-5555555555558888555577776666----3333--------7766--|
|-------------------------------------------------|||------------------------------------------------o|||-------------------------------------------------|||-------------------------------------------------|||---------------------------6---------1-----0-3--o|||-5555555555555888855557777-6-5-5-3-3-1-3-2-0-3---||
| . . . . . . ||-------------------------------------------------|||------------------------------------------------o|||-------------------------------------------------|||-------------------------------------------------|||---------------------------6---------1-----0-3--o|||-5555555555555888855557777-6-5-5-3-3-1-3-2-0-3---|| . . . . . .
[RIFF 1a (x2)] [RIFF 1b (x2)]
[Riff 5]|-------------------------|-------------------------------||-------------------------|-------------------------------||-------------------------|-------------------------------||-------------------------|-------------------------------||-5-4-3-4-3-0-3-2-1-2-1-0-|-5-4-3-4-3-0-11111111----------||-5-4-3-4-3-0-3-2-1-2-1-0-|-5-4-3-4-3-0---------22222222--|
| . . . . . . . . . . . . | . . . . . . ||-------------------------|-------------------------------||-------------------------|-------------------------------||-------------------------|-------------------------------||-------------------------|-------------------------------||-5-4-3-4-3-0-3-2-1-2-1-0-|-5-4-3-4-3-0-11111111----------||-5-4-3-4-3-0-3-2-1-2-1-0-|-5-4-3-4-3-0---------22222222--| . . . . . . . . . . . . . . . . . .
-|-------------------------|--------------------------|-|-------------------------|--------------------------|-|-------------------------|--------------------------|-|-------------------------|-------5-----------8------|-|-5-4-3-4-3-0-3-2-1-2-1-0-|---4-----5-----7-----8----|-|-5-4-3-4-3-0-3-2-1-2-1-0-|-5---5-----5-8---8-----8--|
| . . . . . . . . . . . . | . . . . . . . . . . . . |-|-------------------------|--------------------------|-|-------------------------|--------------------------|-|-------------------------|--------------------------|-|-------------------------|-------5-----------8------|-|-5-4-3-4-3-0-3-2-1-2-1-0-|---4-----5-----7-----8----|-|-5-4-3-4-3-0-3-2-1-2-1-0-|-5---5-----5-8---8-----8--| . . . . . . . . . . . . . . . . . . . . . . . .
-|-------------------------|-------------------------------|-|-------------------------|-------------------------------|-|-------------------------|-------------------------------|-|-------------------------|-------------------------------|-|-5-4-3-4-3-0-3-2-1-2-1-0-|-5-4-3-4-3-0-11111111----------|-|-5-4-3-4-3-0-3-2-1-2-1-0-|-5-4-3-4-3-0---------22222222--|
| . . . . . . . . . . . . | . . . . . . |-|-------------------------|-------------------------------|-|-------------------------|-------------------------------|-|-------------------------|-------------------------------|-|-------------------------|-------------------------------|-|-5-4-3-4-3-0-3-2-1-2-1-0-|-5-4-3-4-3-0-11111111----------|-|-5-4-3-4-3-0-3-2-1-2-1-0-|-5-4-3-4-3-0---------22222222--| . . . . . . . . . . . . . . . . . .
-|-------------------------|-|-------------------------|-|-------------------------|-|-------------------------|-|-5-4-3-4-3-0-3-2-1-2-1-0-|-|-5-4-3-4-3-0-3-2-1-2-1-0-|
| . . . . . . . . . . . . |-|-------------------------|-|-------------------------|-|-------------------------|-|-------------------------|-|-5-4-3-4-3-0-3-2-1-2-1-0-|-|-5-4-3-4-3-0-3-2-1-2-1-0-| . . . . . . . . . . . .
[Outro 2]|-----------------------------------------------------------||--------------------------------------------^--------------||------------------------------------------2h3--------------||-4-3-3333-4-3-3333444433332222----------------3-2----------||-4-3------4-3------------------3-11112222---------3-2-0-1--||-4-3------4-3------------------3---------------------------|
| . . . . . . . . . . . ||-----------------------------------------------------------||--------------------------------------------^--------------||------------------------------------------2h3--------------||-4-3------4-3---------------------------------3-2----------||-4-3------4-3------------------3-11112222---------3-2-0-1--||-4-3------4-3------------------3---------------------------| . . . . . . . . . . .
-|----------------------------------------------------|-|----------------------------------------------------|-|---------------------------------------6h7---10-10--|-|-4-3-3333-4-3-3333444433332222----------------9--9--|-|-4-3------4-3------------------3-4-5-5-----8--------|-|-4-3------4-3------------------3-4-5----------------|
| . . . . . . . . . |-|----------------------------------------------------|-|----------------------------------------------------|-|---------------------------------------6h7---10-10--|-|-4-3-3333-4-3-3333444433332222----------------9--9--|-|-4-3------4-3------------------3-4-5-5-----8--------|-|-4-3------4-3------------------3-4-5----------------| . . . . . . . . .
[Ending]|-----------------------------------------------------------||--------------------------------------------^--------------||------------------------------------------2h3--------------||-4-3-3333-4-3-3333444433332222----------------3-2----------||-4-3------4-3------------------3-11112222---------3-2-0-1--||-4-3------4-3------------------3---------------------------|
| . . . . . . . . . . . ||-----------------------------------------------------------||--------------------------------------------^--------------||------------------------------------------2h3--------------||-4-3-3333-4-3-3333444433332222----------------3-2----------||-4-3------4-3------------------3-11112222---------3-2-0-1--||-4-3------4-3------------------3---------------------------| . . . . . . . . . . .
-|------------------------------------------------------|-|--------------------------------------------^---------|-|------------------------------------------2h3---------|-|-4-3-3333-4-3-3333444433332222----------------3-2-----|-|-4-3------4-3------------------3-11112222---------3-2-|-|-4-3------4-3------------------3------------------3-2-|
| . . . . . . . . .-|------------------------------------------------------|-|--------------------------------------------^---------|-|------------------------------------------2h3---------|-|-4-3------4-3---------------------------------3-2-----|-|-4-3------4-3------------------3-11112222---------3-2-|-|-4-3------4-3------------------3------------------3-2-| . . . . . . . . .
-|------------------------------------|-|------------------------------------|-|------------------------------------|-|-1==========------------------------|-|-1==========-----1-----------3-0----|-|-3==========-0-0---3-2-3-2-1-3-0----|
| . . . . . . . . . . |-|------------------------------------|-|------------------------------------|-|------------------------------------|-|-1==========------------------------|-|-1==========-----1-----------3-0----|-|-3==========-0-0---3-2-3-2-1-3-0----| . . . . . . . . . .
END OF SONG
Tap to rate this tab
 
# A B C D E F G H I J K L M N O P Q R S T U V W X Y Z