Odious Mortem – Thought Disruption tab

--- ODIOUS MORTEM --- 
                            "Thought Disruption" 
                     From album: "Devouring The Prophecy" 
                     

                            TABULATURE LEGEND: 
                   " - tremolo             h - hammer on            
                   ~ - vibrato             \ - slide down 
                   p - pull off            / - slide down 
                  tr - tremolo picking     ^ - pinch harmonics      
                   = - sustained note      b - bend string          
                p.m. - palm muting         t - tapping 

TUNING: C# G# C# F# A# D# 

[Riff 1a (x2)] ||-------------------------------------------------------| ||o------------------------------------------------------| ||--------------------1~-------------------------4-4-4-4-| ||--------------2tr3---------------------3-3-3-3---------| ||o-------1tr2-------------------2-2-2-2-----------------| ||--3tr6-----------------3-3-3-3-------------------------|
|
||-------------------------------------------------------| ||o------------------------------------------------------| ||--------------------1--------------------------4-4-4-4-| ||--------------2tr3---------------------3-3-3-3---------| ||o-------1tr2-------------------2-2-2-2-----------------| ||--3tr6-----------------3-3-3-3-------------------------|
|--------------------------------------------------------------|| |-------------------------------------------------------------o|| |-----------------------1-1-1-1---------------5-5-5-5-4-4-4-4--|| |-------2-2-2-2-3-3-3-3---------------6-6-6-6------------------|| |-------------------------------------------------------------o|| |-3tr6--------------------------5tr6---------------------------||
| | |--------------------------------------------------------------|| |-------------------------------------------------------------o|| |-----------------------1-1-1-1---------------5-5-5-5-4-4-4-4--|| |-------2-2-2-2-3-3-3-3---------------6-6-6-6------------------|| |-------------------------------------------------------------o|| |-3tr6--------------------------5tr6---------------------------||
[Riff 2b] |------------------------------------------------------|-- |------------------------------------------------------|- |-------------------1~-------------------------1-1-1-1-|- |-------------2tr3---------------------3-3-3-3---------|- |-------1tr2-------------------2-2-2-2-----------------|- |-3tr6-----------------3-3-3-3-------------------------|-
| | |------------------------------------------------------|- |------------------------------------------------------|- |-------------------1~-------------------------4-4-4-4-|- |-------------2tr3---------------------3-3-3-3---------|- |-------1tr2-------------------2-2-2-2-----------------|- |-3tr6-----------------3-3-3-3-------------------------|-
|-------------------------------------------------------------| |---------------------------------------------4-4-4-4-3-3-3-3-| |-----------------------4-4-4-4-------4-4-4-4-----------------| |-------2-2-2-2-3-3-3-3---------------------------------------| |-------------------------------------------------------------| |-3tr6--------------------------5tr6--------------------------|
| | |-------------------------------------------------------------| |-------------------------------------------------------------| |-----------------------1-1-1-1---------------5-5-5-5-4-4-4-4-| |-------2-2-2-2-3-3-3-3---------------6-6-6-6-----------------| |-------------------------------------------------------------| |-3tr6--------------------------5tr6--------------------------|
[Riff 2] ||----------------------[x2]-||-||---------------[x2]-|| ||o-------------------------o||-||o------------------o|| ||---------------------------||-||--------------------|| ||--3-----2------------------||-||--------------------|| ||o-------2-----2-----------o||-||o-3tr4-2---1---3---o|| ||----4-3---3-2---3-4-3-2-1--||-||-------4-0-3-0-5-0--|| . . . . . . . . . . . . . . . . .
[Riff 3] |------------------------------------------------|- |------------------------------------------------|- |----------------1"---------------------------4"-|- |-------3"-1"-0"---------------------6"-4"-3"----|- |----2"---------------------------5"-------------|- |-3"-----------------0h1p0-0h3p0-----------------|-
| | |------------------------------------------------|- |---------------------------------------------3~-|- |----------------1"------------------------------|- |-------3"-1"-0"---------------------6"-4"-3"----|- |----2"---------------------------5"-------------|- |-3"-----------------0h1p0-0h3p0-----------------|-
-|---------------------------------------------| -|---------------------------------------------| -|----------------1"---------------------------| -|-------3"-1"-0"---------------------6"-4"-3"-| -|----2"---------------------------5"----------| -|-3"-----------------0h1p0-0h3p0--------------|
| | -|---------------------------------------------| -|---------------------------------------------| -|----------------1"---------------------------| -|-------3"-1"-0"---------------------3"-1"-0"-| -|----2"---------------------------2"----------| -|-3"-----------------0h1p0-0h3p0--------------|
[Riff 4] |------------|------------------------|-----------------------| |------------|------------------------|-----------------------| |-------^----|------------------------|-----------------------| |-------3~---|-------2"-1"--------1---|-------2"-1"--------1--| |-0-0-0----0-|----1"-------3"-----1---|----1"-------3"-----1--| |-0-0-0----0-|-2"-------------2-2---2-|-2"-------------2-2----|
| . . . . | . . . | . . | |------------|------------------------|-----------------------| |------------|------------------------|-----------------------| |-------^----|------------------------|-----------------------| |-------3~---|-------2"-1"--------1---|-------2"-1"--------1--| |-0-0-0----0-|----1"-------3"-----1---|----1"-------3"-----1--| |-0-0-0----0-|-2"-------------2-2---2-|-2"-------------2-2----| . . . . . . . . .
[RIFF 3]
[Riff 5 (x2)] ----------||-------------------||-| ----------||o-----------------o||-| -------^--||-------------------||-| -------3~-||-------------------||-| -0-0-0----||o-1-4-3-2-3-2-1-2-o||-| -0-0-0----||--1-4-3-2-3-2-1-2--||-|
. . . | . . . . . . . . | ----------||-------------------||-| ----------||o-----------------o||-| -------^--||-------------------||-| -------3~-||-------------------||-| -0-0-0----||o-1-4-3-2-3-2-1-2-o||-| -0-0-0----||--1-4-3-2-3-2-1-2--||-| . . . . . . . . . . .
[Riff 6a (x2)] ||---------------------------------------------------|| ||o-------------------------------------------------o|| ||---------------------------------------------------|| ||---------------------------------------------------|| ||o-------------------------------------------------o|| ||--4h7p4-3h6p3-2h5p2-3h6p3-2h5p2-1h4p1-2h5p2-1h4p1--||
| | ||---------------------------------------------------|| ||o-------------------------------------------------o|| ||---------------------------------------------------|| ||---------------------------------------------------|| ||o-------------------------------------------------o|| ||--4h7p4-3h6p3-2h5p2-3h6p3-2h5p2-1h4p1-2h5p2-1h4p1--||
[Riff 7 (x2)] ||----------------------------------|-----------------------------------|| ||o---------------------------------|----------------------------------o|| ||------------------------------1-4-|-----------------------------------|| ||----------5-8-------------3-6-----|---------5-8-----------------------|| ||o-----4-7---------4-7-------------|-----4-7-----------7-----5h6p5-4--o|| ||--2-5---------2-5-----2-5---------|-2-5---------5-8-5---5-8-------6---||
| . . . . . . . . . . . . . . . . | . . . . . . . . . . . . | ||----------------------------------|-----------------------------------|| ||o---------------------------------|----------------------------------o|| ||------------------------------1-4-|-----------------------------------|| ||----------5-8-------------3-6-----|---------5-8-----------------------|| ||o-----4-7---------4-7-------------|-----4-7-----------7-----5h6p5-4--o|| ||--2-5---------2-5-----2-5---------|-2-5---------5-8-5---5-8-------6---||
[Riff 6b] |-------------------------------------------------|- |-------------------------------------------------|- |-------------------------------------------------|- |-------------------------------------------------|- |-------------------------------------------------|- |-4h7p4-3h6p3-2h5p2-3h6p3-2h5p2-1h4p1-2h5p2-1h4p1-|-
| | |-------------------------------------------------|- |-------------------------------------------------|- |-------------------------------------------------|- |-------------------------------------------------|- |-4-----3-----2-----3-----2-----1-----2-----1-----|- |-4-----3-----2-----3-----2-----1-----2-----1-----|- . . . . . . . .
-|----------------------------------------------------| -|----------------------------------------------------| -|----------------------------------------------------| -|----------------------------------------------------| -|-8h11p8-7h10p7-6h9p6-7h10p7-6h9p6-5h8p5-6h9p6-5h8p5-| -|----------------------------------------------------|
| | -|----------------------------------------------------| -|----------------------------------------------------| -|----------------------------------------------------| -|----------------------------------------------------| -|----------------------------------------------------| -|-4h=7p4-3h=6p3-2h5p2-3h=6p3-2h5p2-1h4p1-2h5p2-1h4p1-|
[RIFF 7 (x2)]
[Outro] |-----------|-------------------------------------------| |-----------|-------------------------------------------| |--4~~~~~~~-|-------------------------------------------| |-----------|-------------------------------------1h4p1-| |-----------|-------------------3h6p3-1h4p1-2h5p2-------| |-----------|-8-7-6-8-7-6-3h6p3-------------------------|
| | . . . . . . | |-----------|-------------------------------------------| |-^---------|-------------------------------------------| |-4~~~~~~~~-|-------------------------------------------| |-----------|-------------------------------------3h6p3-| |-----------|-------------------3h6p3-1h4p1-4h7p4-------| |-----------|-8-7-6-8-7-6-3h6p3-------------------------| . . . . . .
[Riff 8] |---------------------------------------------------------------|- |---------------------------------------------------------------|- |-------------------------------------------------------3-3-3-3-|- |---------------------------------------3-3-3-3-2-2-2-2---------|- |---------1-1-1-1-4-4-4-4---------------------------------------|- |-2-2-2-2-----------------2-2-2-2-5h8p5-------------------------|-
| | |---------------------------------------------------------------|- |---------------------------------------------------------------|- |-------------------------------------------------------3-3-3-3-|- |---------------------------------------3-3-3-3-2-2-2-2---------|- |---------1-1-1-1-4-4-4-4---------------------------------------|- |-2-2-2-2-----------------2-2-2-2-5h8p5-------------------------|-
-|-------------------------|---------------------------3-------------|- -|-------------------------|-------------------------4---------------|- -|-------------------------|-------------------4---4---------------6-|- -|-------------------------|-----3-----6---8-----3-------4-5---4-5---|- -|---------1-1-1-1-4-4-4-4-|-1-4-----5---7---1---------------4-------|- -|-2-2-2-2-----------------|-------2---------------------------------|-
| | . . . . . . . . . . . . . . . . . . . . | -|-------------------------|---------------------------3-------------|- -|-------------------------|-------------------------4---------------|- -|-------------------------|-------------------4---4---------------6-|- -|-------------------------|-----3-----6---8-----3-------4-5---4-5---|- -|---------1-1-1-1-4-4-4-4-|-1-4-----5---7---1---------------4-------|- -|-2-2-2-2-----------------|-------2---------------------------------|- . . . . . . . . . . . . . . . . . . . .
-|---------------------------------------------------------------|- -|---------------------------------------------------------------|- -|-------------------------------------------------------3-3-3-3-|- -|---------------------------------------3-3-3-3-2-2-2-2---------|- -|---------1-1-1-1-4-4-4-4---------------------------------------|- -|-2-2-2-2-----------------2-2-2-2-5h8p5-------------------------|-
| | -|---------------------------------------------------------------|- -|---------------------------------------------------------------|- -|-------------------------------------------------------3-3-3-3-|- -|---------------------------------------3-3-3-3-2-2-2-2---------|- -|---------1-1-1-1-4-4-4-4---------------------------------------|- -|-2-2-2-2-----------------2-2-2-2-5h8p5-------------------------|-
-|---------------------------------------------------|- -|---------------------------------------------------|- -|---------------------------------------------------|- -|---------------------------------------------------|- -|---------1-1-1-1-4-4-4-4---------1h2h4-3h4h6-4~----|- -|-2-2-2-2-----------------2-2-2-2----------------3~-|-
| | -|---------------------------------------------------|- -|---------------------------------------------------|- -|---------------------------------------------------|- -|---------------------------------------------------|- -|---------1-1-1-1-4-4-4-4---------1h2h4-3h4h6-4~----|- -|-2-2-2-2-----------------2-2-2-2----------------3~-|-
-|---------------------------------------------------------------|- -|---------------------------------------------------------------|- -|-------------------------------------------------------3-3-3-3-|- -|---------------------------------------3-3-3-3-2-2-2-2---------|- -|---------1-1-1-1-4-4-4-4---------------------------------------|- -|-2-2-2-2-----------------2-2-2-2-5h8p5-------------------------|-
| | -|---------------------------------------------------------------|- -|---------------------------------------------------------------|- -|-------------------------------------------------------3-3-3-3-|- -|---------------------------------------3-3-3-3-2-2-2-2---------|- -|---------1-1-1-1-4-4-4-4---------------------------------------|- -|-2-2-2-2-----------------2-2-2-2-5h8p5-------------------------|-
-|-------------------------|---------------------------3-------------|- -|-------------------------|-------------------------4---------------|- -|-------------------------|-------------------4---4---------------6-|- -|-------------------------|-----3-----6---8-----3-------4-5---4-5---|- -|---------1-1-1-1-4-4-4-4-|-1-4-----5---7---1---------------4-------|- -|-2-2-2-2-----------------|-------2---------------------------------|-
| | . . . . . . . . . . . . . . . . . . . . | -|-------------------------|---------------------------3-------------|- -|-------------------------|-------------------------4---------------|- -|-------------------------|-------------------4---4---------------6-|- -|-------------------------|-----3-----6---8-----3-------4-5---4-5---|- -|---------1-1-1-1-4-4-4-4-|-1-4-----5---7---1---------------4-------|- -|-2-2-2-2-----------------|-------2---------------------------------|- . . . . . . . . . . . . . . . . . . . .
-|---------------------------------------------------------------|- -|---------------------------------------------------------------|- -|-------------------------------------------------------3-3-3-3-|- -|---------------------------------------3-3-3-3-2-2-2-2---------|- -|---------1-1-1-1-4-4-4-4---------------------------------------|- -|-2-2-2-2-----------------2-2-2-2-5h8p5-------------------------|-
| | -|---------------------------------------------------------------|- -|---------------------------------------------------------------|- -|-------------------------------------------------------3-3-3-3-|- -|---------------------------------------3-3-3-3-2-2-2-2---------|- -|---------1-1-1-1-4-4-4-4---------------------------------------|- -|-2-2-2-2-----------------2-2-2-2-5h8p5-------------------------|-
-|------------------------------------------|- -|------------------------------------------|- -|------------------------------------------|- -|------------------------------3-----6---8-|- -|---------1-1-1-1-4-4-4-4--1-4-----5---7---|- -|-2-2-2-2------------------------2---------|-
| . . . . . . . . | -|------------------------------------------|- -|------------------------------------------|- -|------------------------------------------|- -|------------------------------3-----6---8-|- -|---------1-1-1-1-4-4-4-4--1-4-----5---7---|- -|-2-2-2-2------------------------2---------|-
-|---------------------------------------------------------------|- -|---------------------------------------------------------------|- -|-------------------------------------------------------3-3-3-3-|- -|---------------------------------------3-3-3-3-2-2-2-2---------|- -|---------1-1-1-1-4-4-4-4---------------------------------------|- -|-2-2-2-2-----------------2-2-2-2-5h8p5-------------------------|-
| | -|---------------------------------------------------------------|- -|---------------------------------------------------------------|- -|-------------------------------------------------------3-3-3-3-|- -|---------------------------------------3-3-3-3-2-2-2-2---------|- -|---------1-1-1-1-4-4-4-4---------------------------------------|- -|-2-2-2-2-----------------2-2-2-2-5h8p5-------------------------|
-|---------------------------------------------------| -|---------------------------------------------------| -|---------------------------------------------------| -|---------------------------------------------------| -|---------1-1-1-1-4-4-4-4---------1h2h4-3h4h6-4~----| -|-2-2-2-2-----------------2-2-2-2----------------3~-|
| | -|---------------------------------------------------| -|---------------------------------------------------| -|---------------------------------------------------| -|---------------------------------------------------| -|---------1-1-1-1-4-4-4-4---------1h2h4-3h4h6-4~----| -|-2-2-2-2-----------------2-2-2-2----------------3~-|
END OF SONG
Please rate this tab:
x1.0