Odious Mortem - Nothing Beyond The Rot tab

--- ODIOUS MORTEM ---
                         "Nothing Beyond The Rot"
                     From album: "Devouring The Prophecy"


                            TABULATURE LEGEND:
                   " - tremolo             h - hammer on
                   ~ - vibrato             \ - slide down
                   p - pull off            / - slide down
                  tr - tremolo picking     ^ - pinch harmonics
                   = - sustained note      b - bend string
                p.m. - palm muting         t - tapping

TUNING: C# G# C# F# A# D#

[Riff 1 (x2)]||-------------------------------------------------------------|||o------------------------------------------------------------|||-------------------------------------------------------------|||--------------------------------------------------[9t12]...--|||o-5--4----------------------------------[8t11]...------------|||--7--6--0h3h6t9p6p0--[7t10]...-[6t9]...----------------------| \_...pick tapping..._________________/
-|-----------------------------------------------|-|-----------------------------------------------|-|-----------------------10"...------------------|-|-------9"...--------------------------^----^---|-|-8"...-------7-6-8"...--------7-6-5---3~---3~--|-|-------------7-6--------------7-6-5-0----0-----| . . . . . . .
-|------------------------------------------------------------|-|------------------------------------------------------------|-|------------------------------------------------------------|-|-------------------------------------------------[9t12]...--|-|-5--4----------------------------------[8t11]...------------|-|-7--6--0h3h6t9p6p0--[7t10]...-[6t9]...----------------------| \_...pick tapping..._________________/
-|---------------------------------------------------------||-|--------------------------------------------------------o||-|-----------------------10"...----------------------------||-|-------9"...--------------------------^----^----^----^---||-|-8"...-------7-6-8"...--------7-6-5---3~---3~---3~---3~-o||-|-------------7-6--------------7-6-5-0----0----0----0-----|| . . . . . . . . .
[Riff 2]|--------------------------------------|--------------------------------------||--------------------------------------|--------------------------------------||--------------------------------------|--------------------------------------||---------^----------------------------|---------^----------------------------||-3-2-1---3---3-2-1--------------------|-3-2-1---3---3-2-1--------------------||-5-4-3-0---0-5-4-3-0-3tr6--4tr7--5tr8-|-5-4-3-0---0-5-4-3-0-3tr6--6tr9--5tr8-| . . . . . . . . . . . . . . . . . .
-|---------------------------------------|---------------------------------|-|---------------------------------------|---------------------------------|-|---------------------------------------|---------------------------------|-|---------^-----------------------------|---------^-----------------------|-|-3-2-1---3---3-2-1---------------------|-3-2-1---3---3-2-1---------------|-|-5-4-3-0---0-5-4-3-0-3tr6--2tr5--1tr4--|-5-4-3-0---0-5-4-3-0-1tr4--2tr5--| . . . . . . . . . . . . . . . . . .
[Riff 3a]|--------------------------------------------------------------------||--------------------------------------------------------------------||---------------------------------------------------------[9t12]...--||---------[7t10]...-[8t11]...---------[7t10]...-[8t11]...------------||-3-2-1-----------------------3-2-1----------------------------------||-5-4-3-0---------------------5-4-3-0--------------------------------|
| . . . . \__pick tapping___/ . . . . \__pick tapping_____________/ ||--------------------------------------------------------------------||--------------------------------------------------------------------||---------------------------------------------------------[9t12]...--||---------[7t10]...-[8t11]...---------[7t10]...-[8t11]...------------||-3-2-1-----------------------3-2-1----------------------------------||-5-4-3-0---------------------5-4-3-0--------------------------------| . . . . \__pick tapping___/ . . . . \__pick tapping_____________/
-----------------------------------------------------------------------------|-----------------------------------------------------------------------------|---------------------------------------------------------[9t12]...-[8t11]...-|---------[7t10]...-[8t11]...---------[7t10]...-[8t11]...---------------------|-3-2-1-----------------------3-2-1-------------------------------------------|-5-4-3-0---------------------5-4-3-0-----------------------------------------|
. . . . \__pick tapping___/ . . . . \__pick tapping_______________________/ |-----------------------------------------------------------------------------|-----------------------------------------------------------------------------|---------------------------------------------------------[9t12]...-[8t11]...-|---------[7t10]...-[8t11]...---------[7t10]...-[8t11]...---------------------|-3-2-1-----------------------3-2-1-------------------------------------------|-5-4-3-0---------------------5-4-3-0-----------------------------------------| . . . . \__pick tapping___/ . . . . \__pick tapping_______________________/
[Riff 3b]|--------------------------------------------------------------------||--------------------------------------------------------------------||--------------------------------------------------------------------||---------------------------------------------------------[7t10]...--||-3-2-1---[5t8]....-[6t9]....-3-2-1---[5t8]....-[6t9]....------------||-5-4-3-0---------------------5-4-3-0--------------------------------|
| . . . . \__pick tapping___/ . . . . \__pick tapping_____________/ ||--------------------------------------------------------------------||--------------------------------------------------------------------||---------------------------------------------------------[9t12]...--||---------[7t10]...-[8t11]...---------[7t10]...-[8t11]...------------||-3-2-1-----------------------3-2-1----------------------------------||-5-4-3-0---------------------5-4-3-0--------------------------------| . . . . \__pick tapping___/ . . . . \__pick tapping_____________/
-----------------------------------------------------------------------------|-----------------------------------------------------------------------------|-----------------------------------------------------------------------------|---------------------------------------------------------[7t10]...-[6t9]....-|-3-2-1---[5t8]....-[6t9]....-3-2-1---[5t8]....-[6t9]....---------------------|-5-4-3-0---------------------5-4-3-0-----------------------------------------|
. . . . \__pick tapping___/ . . . . \__pick tapping_______________________/ |-----------------------------------------------------------------------------|-----------------------------------------------------------------------------|---------------------------------------------------------[9t12]...-[8t11]...-|---------[7t10]...-[8t11]...---------[7t10]...-[8t11]...---------------------|-3-2-1-----------------------3-2-1-------------------------------------------|-5-4-3-0---------------------5-4-3-0-----------------------------------------| . . . . \__pick tapping___/ . . . . \__pick tapping_______________________/
[Riff 4]|-------------------------------------------------||-------------------------------------------------||-------------------------------------------------||-------------------------------------------------||-3-2-0-5-4-0-3-2-0-5-4-0-3-2-0-5-4-0-------------||-3-2-0-5-4-0-3-2-0-5-4-0-3-2-0-5-4-0-6tr9--5tr8--|
| . . . . . . . . . . . . . . . . . . ||-------------------------------------------------||-------------------------------------------------||-------------------------------------------------||-------------------------------------------------||-3-2-0-5-4-0-3-2-0-5-4-0-3-2-0-5-4-0-------------||-3-2-0-5-4-0-3-2-0-5-4-0-3-2-0-5-4-0-6tr9--5tr8--| . . . . . . . . . . . . . . . . . .
|-----------------------------------------------||-----------------------------------------------||-----------------------------------------------||-----------------------------------------------||-3-2-0-5-4-0-3-2-0-5-4-0-3-2-0-5-4-0-5----2----||-3-2-0-5-4-0-3-2-0-5-4-0-3-2-0-5-4-0-6----3----|
| . . . . . . . . . . . . . . . . . . ||-----------------------------------------------||-----------------------------------------------||-------------------------------------^---------||-------------------------------------8~~-^-----||-3-2-0-5-4-0-3-2-0-5-4-0-3-2-0-5-4-0-----7~~---||-3-2-0-5-4-0-3-2-0-5-4-0-3-2-0-5-4-0-----------| . . . . . . . . . . . . . . . . . .
|-------------------------------------------------||-------------------------------------------------||-------------------------------------------------||-------------------------------------------------||-3-2-0-5-4-0-3-2-0-5-4-0-3-2-0-5-4-0-------------||-3-2-0-5-4-0-3-2-0-5-4-0-3-2-0-5-4-0-6tr9--5tr8--|
| . . . . . . . . . . . . . . . . . . ||-------------------------------------------------||-------------------------------------------------||-------------------------------------------------||-------------------------------------------------||-3-2-0-5-4-0-3-2-0-5-4-0-3-2-0-5-4-0-------------||-3-2-0-5-4-0-3-2-0-5-4-0-3-2-0-5-4-0-6tr9--5tr8--| . . . . . . . . . . . . . . . . . .
|-------------------------------------------------------||-------------------------------------------------------||-------------------------------------------------------||-------------------------------------------------------||-3-2-0-5-4-0-3-2-0-5-4-0-3-2-0-5-4-0-5--2--5--2--5--2--||-3-2-0-5-4-0-3-2-0-5-4-0-3-2-0-5-4-0-6--3--6--3--6--3--|
| . . . . . . . . . . . . . . . . . . ||-------------------------------------------------------||-------------------------------------------------------||-------------------------------------------------------||-------------------------------------------------------||-3-2-0-5-4-0-3-2-0-5-4-0-3-2-0-5-4-0-5--2--5--2--5--2--||-3-2-0-5-4-0-3-2-0-5-4-0-3-2-0-5-4-0-6--3--6--3--6--3--| . . . . . . . . . . . . . . . . . .
[Riff 5]|---------------------------------------------------||---------------------------------------------------||---------------------------------------------------||-3--5--4--3--2--4------5--4--3--2--4--3--5--4--3---||-3--5--4--3--2--4------5--4--3--2--4--3--5--4--3---||-3--5--4--3--2--4--3-3-5--4--3--2--4--3--5--4--3---| . .
-|-------------------------|-|-------------------------|-|-------------------------|-|-2--4--3--5--4--3--2--4--|-|-2--4--3--5--4--3--2--4--|-|-2--4--3--5--4--3--2--4--|
[Riff 6 (x2)]||----------------------------------------------------|||o---------------------------------------------------|||----------------------------------------------------|||------------------3"-2"-1"-----------------6"-5"-4"-|||o-----1"-4"-3"-2"--------------1"-4"-3"-2"----------|||--2-2----------------------2-2----------------------|
|--------------------------------------------|||-------------------------------------------o|||-----------------------------------------4--|||---------5-3-----3---------5-3-----3--------|||---5-3-5-------------5-3-5-----------------o|||-4-----------0-4---3-----------0-4---0-4----|| . . . . . . . . . . . . . . . . . . . . .
[outro]|--------------------------------------------||--------------------------------------------||-----------------------------------------4--||---------5-3-----3---------5-3-----3--------||---5-3-5-------------5-3-5------------------||-4-----------0-4---3-----------0-4---0-4----| . . . . . . . . . . . . . . . . . . . . .
-|--------------------------------------|-|---------9---10-----------------------|-|-5---8-----8----8---8-----------------|-|---4---8----------8---8---8-----------|-|------------------------7---7---7-----|-|------------------------------8---8-7-| . . . . . . . . . . . . . . . . . .
[RIFF 2] END OF SONG
Tap to rate this tab
 
# A B C D E F G H I J K L M N O P Q R S T U V W X Y Z