Of Mice And Men - Og Loko tab version 1

Just for reference!
This is not my work, I have found it on the internet and since it was missing on this 
site, I decided to upload it!
All credits to whoever tabbed it out!
##########################################

intro riff (tremolo) X6|---------------------------------|---------||---------------------------------|---------||---------------------------------|---------||---------------------------------|--5~-----||-7-----------7-----------3-5-----|--3~-----||----0-3p0-----0-3p0--------------|---------|
palm muted X2|----------------------------------------------||----------------------------------------------||----------------------------------------------||----------------------------------------------||000--0--0---000--0--0---000-000---------------||000--0--0---000--0--0---000-000---------------|
open notes X2|----------------------------------------------||----------------------------------------------||----------------------------------------------||----------------------------------------------||----------------------------------------------||00--0-0--00--0-0--00--0-0--0000---------------|
X4|---------------------|---------------||---------------------|---------------||---------------------|---------------||---------------------|--3333~--------||-5------------------|--1111~---------||----0-1p0--00---|--------------------|
CHORUS pt1 no palm mute|----------------------------------------------||----------------------------------------------||----------------------------------------------||----------------------------------------------||-0000--00--0000--00--8888--88-----------------||-0000--00--0000--00--8888--88-----------------|
|---------------------------------------------||---------------------------------------------||---------------------------------------------||---------------------------------------------||-5555--55--0000--00--0000--00----------------||-5555--55--0000--00--0000--00----------------|
|---------------------------------||---------------------------------||---------------------------------||---------------------------------||-3333--33--5555--55--------------||-3333--33--5555--55--------------|
CHORUS pt 2 palm muted|--------------------------------------------||--------------------------------------------||--------------------------------------------||--------------------------------------------||-000--0--00-00--000--0--00-00---------------||-000--0--00-00--000--0--00-00---------------|
|--------------------------------------------||--------------------------------------------||--------------------------------------------||--------------------------------------------||-888--8--88-88--555--5--55-55---------------||-888--8--88-88--555--5--55-55---------------|
|-------------------------------------------||-------------------------------------------||-------------------------------------------||-------------------------------------------||---|-000--0--00-00--000--0--00-00--
|---------------------------------------------||---------------------------------------------||---------------------------------------------||---------------------------------------------||-333--3--33-33--555--5--55-55----------------||-333--3--33-33--555--5--55-55----------------|
intro riff
breakdown 1 X4|-------------------------------||-------------------------------||-------------------------------||-------------------------------||--000000--0--0--0--0-----------||--000000--0--0--0--0-----------|
|--------------------------------------------------||--------------------------------------------------||--------------------------------------------------||--------------------------------------------------||--------------------------------------------------||-8-0-0--0--0---8-0-0--0--0-1111-3333--------------|
chorus pts 1&2
BEASTLY BREAKDOWNshh...|----------------------------------------------||----------------------------------------------||----------------------------------------------||----------------------------------------------||-000--000-----000---000-000-000---------------||-000--000-----000---000-000-000---------------|
|--------------------------||--------------------------||--------------------------||--------------------------||-000-------000------------||-000--0---000--0----------|
Tap to rate this tab
 
# A B C D E F G H I J K L M N O P Q R S T U V W X Y Z