Offspring - Kristy Are You Doing Okay tab

-------------------------------------------------------------------------------
			                   Kristy, Are You Doing Okay? - The Offspring
-------------------------------------------------------------------------------

Great song off the offspring's new album "Rise and Fall, Rage and Grace".
I'm pretty sure it's correct.
Comment if you think somethings wrong.

-Guitar 1 (Dexter) - Standard Tuning (Capo 1st fret!)
-Guitar 2 (Noodles) - Standard tuning (No Capo!)


Intro:

Guitar 1:e|----------------------------------------|B|----------------------------------------|G|-----4-44------4-44------4-44------4-44-|D|-----4-44------4-44------4-44------4-44-|A|-2-2-2-22--2-2-2-22------x-xx------x-xx-|E|---------------------0-0-0-00--2-2-2-22-|(X2)
Verse:
Guitar 1:|----------------------------------------||----------------------------------------||-----4-44------4-44------4-44------4-44-||-----4-44------4-44------4-44------4-44-||-2-2-2-22--1-1-1-11------x-xx------x-xx-||---------------------4-4-4-44--2-2-2-22-|
----------------------------------------|----------------------------------------|-----4-44------4-44------4-44------4-44-|-----4-44------4-44------4-44------4-44-|-----x-xx------x-xx------x-xx------x-xx-|-0-0-0-00--0-0-0-00--2-2-2-22--2-2-2-22-|(X2)
Pre-Chorus:
Guitar 1:|----------------------------------||----------------------------------||----------------------------------||-2-2-2-2-2-2-2-2--4-4-4-4-4-4-4-4-||-2-2-2-2-2-2-2-2--4-4-4-4-4-4-4-4-||-0-0-0-0-0-0-0-0--2-2-2-2-2-2-2-2-|
----------------------------------------|----------------------------------------|-----4-44------4-44------4-44------4-44-|-----4-44------4-44------4-44------4-44-|-2-2-2-22--1-1-1-11------x-xx------x-xx-|---------------------4-4-4-44--2-2-2-22-|
----------------------------------|----------------------------------|----------------------------------|-2-2-2-2-2-2-2-2--4-4-4-4-4-------|-2-2-2-2-2-2-2-2--4-4-4-4-4-------|-0-0-0-0-0-0-0-0--2-2-2-2-2-------|
Chorus:
Guitar 1:|----------------------------------||----------------------------------||-4-4-4-4-4-4-4-4------------------||-4-4-4-4-4-4-4-4--6-6-6-6-6-6-6-6-||-2-2-2-2-2-2-2-2--6-6-6-6-6-6-6-6-||------------------4-4-4-4-4-4-4-4-|
--------------------------------------|--------------------------------------|-6-6-6-6-6-6-6-6--9-9-9-9-11-11-11-11-|-6-6-6-6-6-6-6-6--9-9-9-9-11-11-11-11-|-4-4-4-4-4-4-4-4--7-7-7-7--9--9--9--9-|--------------------------------------|
----------------------------------|----------------------------------|-4-4-4-4-4-4-4-4------------------|-4-4-4-4-4-4-4-4--6-6-6-6-6-6-6-6-|-2-2-2-2-2-2-2-2--6-6-6-6-6-6-6-6-|------------------4-4-4-4-4-4-4-4-|
-----------------------------------|-----------------------------------|-6-6-6-6-6-6-6-6-------------------|-6-6-6-6-6-6-6-6--2-2-2-2--4-4-4-4-|-4-4-4-4-4-4-4-4--2-2-2-2--4-4-4-4-|------------------0-0-0-0--2-2-2-2-|
Guitar 2:|----------------------------------||----------------------------------||-5-5-5-5-5-5-5-5------------------||-5-5-5-5-5-5-5-5--7-7-7-7-7-7-7-7-||-3-3-3-3-3-3-3-3--7-7-7-7-7-7-7-7-||------------------5-5-5-5-5-5-5-5-|
-----------------------------------------|-----------------------------------------|-7-7-7-7-7-7-7-7-10-10-10-10-12-12-12-12-|-7-7-7-7-7-7-7-7-10-10-10-10-12-12-12-12-|-5-5-5-5-5-5-5-5--8--8--8--8-10-10-10-10-|-----------------------------------------|
----------------------------------|----------------------------------|-5-5-5-5-5-5-5-5------------------|-5-5-5-5-5-5-5-5--7-7-7-7-7-7-7-7-|-3-3-3-3-3-3-3-3--7-7-7-7-7-7-7-7-|------------------5-5-5-5-5-5-5-5-|
-----------------------------------|-----------------------------------|-7-7-7-7-7-7-7-7-------------------|-7-7-7-7-7-7-7-7--3-3-3-3--5-5-5-5-|-5-5-5-5-5-5-5-5--3-3-3-3--5-5-5-5-|------------------1-1-1-1--3-3-3-3-|
Post-Chorus:
Guitar 1:|----------------------------------------||----------------------------------------||-----4-44------4-44------4-44------4-44-||-----4-44------4-44------4-44------4-44-||-2-2-2-22--2-2-2-22------x-xx------x-xx-||---------------------0-0-0-00--2-2-2-22-|
Verse 2:
Guitar 1:|----------------------------------------||----------------------------------------||-----4-44------4-44------4-44------4-44-||-----4-44------4-44------4-44------4-44-||-2-2-2-22--1-1-1-11------x-xx------x-xx-||---------------------4-4-4-44--2-2-2-22-|
----------------------------------------|----------------------------------------|-----4-44------4-44------4-44------4-44-|-----4-44------4-44------4-44------4-44-|-----x-xx------x-xx------x-xx------x-xx-|-0-0-0-00--0-0-0-00--2-2-2-22--2-2-2-22-|(X2)
Guitar 2:|------------------------------------||------------------------------------||-5-5-5-5--5-5-5-5-------------------||-5-5-5-5--5-5-5-5--7-7-7-7--5-5-5-5-||-3-3-3-3--2-2-2-2--7-7-7-7--5-5-5-5-||-------------------5-5-5-5--3-3-3-3-| x x x x x x x x x x x x x x x x
----------------------------------|----------------------------------|----------------------------------|-3-3-3-3-3-3-3-3--5-5-5-5-5-5-5-5-|-3-3-3-3-3-3-3-3--5-5-5-5-5-5-5-5-|-1-1-1-1-1-1-1-1--3-3-3-3-3-3-3-3-| x x x x x x x x x x x x x x x x
Pre-Chorus:
Guitar 1:|----------------------------------||----------------------------------||----------------------------------||-2-2-2-2-2-2-2-2--4-4-4-4-4-4-4-4-||-2-2-2-2-2-2-2-2--4-4-4-4-4-4-4-4-||-0-0-0-0-0-0-0-0--2-2-2-2-2-2-2-2-|
----------------------------------------|----------------------------------------|-----4-44------4-44------4-44------4-44-|-----4-44------4-44------4-44------4-44-|-2-2-2-22--1-1-1-11------x-xx------x-xx-|---------------------4-4-4-44--2-2-2-22-|
----------------------------------|----------------------------------|----------------------------------|-2-2-2-2-2-2-2-2--4-4-4-4-4-------|-2-2-2-2-2-2-2-2--4-4-4-4-4-------|-0-0-0-0-0-0-0-0--2-2-2-2-2-------|
Guitar 2:|----------------------------------||----------------------------------||----------------------------------||-3-3-3-3-3-3-3-3--5-5-5-5-5-5-5-5-||-3-3-3-3-3-3-3-3--5-5-5-5-5-5-5-5-||-1-1-1-1-1-1-1-1--3-3-3-3-3-3-3-3-| x x x x x x x x x x x x x x x x
----------------------------------------|----5---------5---------5---------5-----|-------5---------5---------5---------5--|----------------------------------------|-3---------2----------------------------|---------------------5---------3--------|
----------------------------------|----------------------------------|----------------------------------|-3-3-3-3-3-3-3-3--5-5-5-5-5-------|-3-3-3-3-3-3-3-3--5-5-5-5-5-------|-1-1-1-1-1-1-1-1--3-3-3-3-3-------| x x x x x x x x x x x x x
Chorus:
Guitar 1:|----------------------------------||----------------------------------||-4-4-4-4-4-4-4-4------------------||-4-4-4-4-4-4-4-4--6-6-6-6-6-6-6-6-||-2-2-2-2-2-2-2-2--6-6-6-6-6-6-6-6-||------------------4-4-4-4-4-4-4-4-|
--------------------------------------|--------------------------------------|-6-6-6-6-6-6-6-6--9-9-9-9-11-11-11-11-|-6-6-6-6-6-6-6-6--9-9-9-9-11-11-11-11-|-4-4-4-4-4-4-4-4--7-7-7-7--9--9--9--9-|--------------------------------------|
----------------------------------|----------------------------------|-4-4-4-4-4-4-4-4------------------|-4-4-4-4-4-4-4-4--6-6-6-6-6-6-6-6-|-2-2-2-2-2-2-2-2--6-6-6-6-6-6-6-6-|------------------4-4-4-4-4-4-4-4-|
-----------------------------------|-----------------------------------|-6-6-6-6-6-6-6-6-------------------|-6-6-6-6-6-6-6-6--2-2-2-2--4-4-4-4-|-4-4-4-4-4-4-4-4--2-2-2-2--4-4-4-4-|------------------0-0-0-0--2-2-2-2-|
Guitar 2:|----------------------------------||----------------------------------||-5-5-5-5-5-5-5-5------------------||-5-5-5-5-5-5-5-5--7-7-7-7-7-7-7-7-||-3-3-3-3-3-3-3-3--7-7-7-7-7-7-7-7-||------------------5-5-5-5-5-5-5-5-|
-----------------------------------------|-----------------------------------------|-7-7-7-7-7-7-7-7-10-10-10-10-12-12-12-12-|-7-7-7-7-7-7-7-7-10-10-10-10-12-12-12-12-|-5-5-5-5-5-5-5-5--8--8--8--8-10-10-10-10-|-----------------------------------------|
----------------------------------|----------------------------------|-5-5-5-5-5-5-5-5------------------|-5-5-5-5-5-5-5-5--7-7-7-7-7-7-7-7-|-3-3-3-3-3-3-3-3--7-7-7-7-7-7-7-7-|------------------5-5-5-5-5-5-5-5-|
-----------------------------------|-----------------------------------|-7-7-7-7-7-7-7-7-------------------|-7-7-7-7-7-7-7-7--3-3-3-3--5-5-5-5-|-5-5-5-5-5-5-5-5--3-3-3-3--5-5-5-5-|------------------1-1-1-1--3-3-3-3-|
Post-Chorus:
Guitar 1:|----------------------------------------||----------------------------------------||-----4-44------4-44------4-44------4-44-||-----4-44------4-44------4-44------4-44-||-2-2-2-22--2-2-2-22------x-xx------x-xx-||---------------------0-0-0-00--2-2-2-22-|(X2)
Solo:
Guitar 1:|------------------------------------||------------------------------------||-4-4-4-4--4-4-4-4-------------------||-4-4-4-4--4-4-4-4--6-6-6-6--4-4-4-4-||-2-2-2-2--1-1-1-1--6-6-6-6--4-4-4-4-||-------------------4-4-4-4--2-2-2-2-|
----------------------------------|----------------------------------|----------------------------------|-2-2-2-2-2-2-2-2--4-4-4-4-4-4-4-4-|-2-2-2-2-2-2-2-2--4-4-4-4-4-4-4-4-|-0-0-0-0-0-0-0-0--2-2-2-2-2-2-2-2-|
Guitar 2:|-------------------------------------------------||-13----13----12----12----13----13----12----12----||----12----12----12----12----14----14----12----12-||-------------------------------------------------||-------------------------------------------------||-------------------------------------------------|
----------------------|----------------------|-10~~~-9--7--9--7-7~~-|----------------------|----------------------|----------------------|
-------------------------------------------------|-13----13----12----12----13----13----12----12----|----12----12----12----12----14----14----12----12-|-------------------------------------------------|-------------------------------------------------|-------------------------------------------------|
-13-13-13-13-12-12-10-10-12--15-15~~~~~-|----------------------------------------|----------------------------------------|----------------------------------------|----------------------------------------|----------------------------------------|
Pre-Chorus:
Guitar 1:|----------------------------------||----------------------------------||----------------------------------||-2-2-2-2-2-2-2-2--4-4-4-4-4-4-4-4-||-2-2-2-2-2-2-2-2--4-4-4-4-4-4-4-4-||-0-0-0-0-0-0-0-0--2-2-2-2-2-2-2-2-|
----------------------------------------|----------------------------------------|-----4-44------4-44------4-44------4-44-|-----4-44------4-44------4-44------4-44-|-2-2-2-22--1-1-1-11------x-xx------x-xx-|---------------------4-4-4-44--2-2-2-22-|
---------------------------------|---------------------------------|---------------------------------|-2-2-2-2-2-2-2-2-2-2-2-2-2-2-2-2-|-2-2-2-2-2-2-2-2-2-2-2-2-2-2-2-2-|-0-0-0-0-0-0-0-0-0-0-0-0-0-0-0-0-|
---------------------------------|---------------------------------|---------------------------------|-4-4-4-4-4-4-4-4-4-4-4-4-4-------|-4-4-4-4-4-4-4-4-4-4-4-4-4-------|-2-2-2-2-2-2-2-2-2-2-2-2-2-------|
Guitar 2:|----------------------------------------||----5---------5---------5---------5-----||-------5---------5---------5---------5--||----------------------------------------||-3---------2----------------------------||---------------------5---------3--------|
---------------------------------|---------------------------------|---------------------------------|-3-3-3-3-3-3-3-3-3-3-3-3-3-3-3-3-|-3-3-3-3-3-3-3-3-3-3-3-3-3-3-3-3-|-1-1-1-1-1-1-1-1-1-1-1-1-1-1-1-1-|
---------------------------------|---------------------------------|---------------------------------|-5-5-5-5-5-5-5-5-5-5-5-5-5-------|-5-5-5-5-5-5-5-5-5-5-5-5-5-------|-3-3-3-3-3-3-3-3-3-3-3-3-3-------|
Final Chorus:
Guitar 1:|----------------------------------||----------------------------------||-4-4-4-4-4-4-4-4------------------||-4-4-4-4-4-4-4-4--6-6-6-6-6-6-6-6-||-2-2-2-2-2-2-2-2--6-6-6-6-6-6-6-6-||------------------4-4-4-4-4-4-4-4-|
--------------------------------------|--------------------------------------|-6-6-6-6-6-6-6-6--9-9-9-9-11-11-11-11-|-6-6-6-6-6-6-6-6--9-9-9-9-11-11-11-11-|-4-4-4-4-4-4-4-4--7-7-7-7--9--9--9--9-|--------------------------------------|
----------------------------------|----------------------------------|-4-4-4-4-4-4-4-4------------------|-4-4-4-4-4-4-4-4--6-6-6-6-6-6-6-6-|-2-2-2-2-2-2-2-2--6-6-6-6-6-6-6-6-|------------------4-4-4-4-4-4-4-4-|
--------------------------------------|--------------------------------------|-6-6-6-6-6-6-6-6--9-9-9-9-11-11-11-11-|-6-6-6-6-6-6-6-6--9-9-9-9-11-11-11-11-|-4-4-4-4-4-4-4-4--7-7-7-7--9--9--9--9-|--------------------------------------|
------------------------------------|------------------------------------|-4-4-4-4--4-4-4-4-------------------|-4-4-4-4--4-4-4-4--6-6-6-6--4-4-4-4-|-2-2-2-2--1-1-1-1--6-6-6-6--4-4-4-4-|-------------------4-4-4-4--2-2-2-2-|
----------------------------------|----------------------------------|----------------------------------|-2-2-2-2-2-2-2-2--4-4-4-4-4-4-4-4-|-2-2-2-2-2-2-2-2--4-4-4-4-4-4-4-4-|-0-0-0-0-0-0-0-0--2-2-2-2-2-2-2-2-|
Guitar 2:|----------------------------------||----------------------------------||-5-5-5-5-5-5-5-5------------------||-5-5-5-5-5-5-5-5--7-7-7-7-7-7-7-7-||-3-3-3-3-3-3-3-3--7-7-7-7-7-7-7-7-||------------------5-5-5-5-5-5-5-5-|
-----------------------------------------|-----------------------------------------|-7-7-7-7-7-7-7-7-10-10-10-10-12-12-12-12-|-7-7-7-7-7-7-7-7-10-10-10-10-12-12-12-12-|-5-5-5-5-5-5-5-5--8--8--8--8-10-10-10-10-|-----------------------------------------|
----------------------------------|----------------------------------|-5-5-5-5-5-5-5-5------------------|-5-5-5-5-5-5-5-5--7-7-7-7-7-7-7-7-|-3-3-3-3-3-3-3-3--7-7-7-7-7-7-7-7-|------------------5-5-5-5-5-5-5-5-|
-----------------------------------------|-----------------------------------------|-7-7-7-7-7-7-7-7-10-10-10-10-12-12-12-12-|-7-7-7-7-7-7-7-7-10-10-10-10-12-12-12-12-|-5-5-5-5-5-5-5-5--8--8--8--8-10-10-10-10-|-----------------------------------------|
-------------------------------------------------|-13----13----12----12----13----13----12----12----|----12----12----12----12----14----14----12----12-|-------------------------------------------------|-------------------------------------------------|-------------------------------------------------|
----------------------------------|----------------------------------|----------------------------------|-3-3-3-3-3-3-3-3--5-5-5-5-5-5-5-5-|-3-3-3-3-3-3-3-3--5-5-5-5-5-5-5-5-|-1-1-1-1-1-1-1-1--3-3-3-3-3-3-3-3-|
Outro:
Guitar 1:|----------------------------------------||----------------------------------------||-----4-44------4-44------4-44------4-44-||-----4-44------4-44------4-44------4-44-||-2-2-2-22--2-2-2-22------x-xx------x-xx-||---------------------0-0-0-00--2-2-2-22-|(X2)
|--------||--------||-4~~~~~-||-4~~~~~-||-2~~~~~-||--------|
That's it. ===============================================================================
Tap to rate this tab
 
# A B C D E F G H I J K L M N O P Q R S T U V W X Y Z