Offspring - Come Out And Play tab

Offspring - Come Out And Play

INTRO PART 1 (clean)|---------------------------------------------------------------------------||---------------------------------------------------------------------------||---------------------------------------------------------------------------||---------------------------------------------------------------------------||---------------------------------------------------------------------------||-----------------12*-12*-12*-----------------------------------------------| drums (* = harmonics) drums You gotta keep 'em separated
INTRO PART 2 (dist.)|-------------| |-------------------------------||-------------| |-------------------------------||-4-4-x-7-----| |---11-11-11-14-9---------------||-4-4-x-7-4/7-| |-------------------------------||-2-2-x-5-4/7-| |-------------------------------||---------2/5-| |-------------------------------|guitar 1 guitar 2
EGYPTIAN RIFF (clean)
|------------------------||------------------------||------------------------||-----1-2-4-2-1----------||-2-3-----------3-2-2-3-2||------------------------|
|------------------------||------------------------||------------------------||-----1-2-4-2-1----------||-2-3-----------3-2-2-3-2||------------------------|
|------------------------||------------------------||------------------------||-----1-2-4-2-1----------||-2-3-----------3-2-2-3-2||------------------------|
|-------------------||-------------------||-------------------||-----1-2-4-2-1-----||-2-3-----------3-2-||-------------------|
VERSE (dist.)|-------------|------------||-------------|------------||-4-4-4-------|-4-4-4-7-x--||-4-4-4-4-x-7-|-4-4-4-7-x-7||-2-2-2-4-x-7-|-2-2-2-5-x-7||-------2-x-5-|-----------5|
|-------------|------------||-------------|------------||-4-4-4-------|-4-4-4-7-x--||-4-4-4-4-x-7-|-4-4-4-7-x-7||-2-2-2-4-x-7-|-2-2-2-5-x-7||-------2-x-5-|-----------5|
|-------------|------------||-------------|------------||-4-4-4-------|-4-4-4-7-x--||-4-4-4-4-x-7-|-4-4-4-7-x-7||-2-2-2-4-x-7-|-2-2-2-5-x-7||-------2-x-5-|-----------5|
|-------------|------------||-------------|------------||-4-4-4-------|-4-4-4-7-x--||-4-4-4-4-x-7-|-4-4-4-7-x-7||-2-2-2-4-x-7-|-2-2-2-5-x-7||-------2-x-5-|-----------5|
Palm Mute the whole thing.
BRIDGE (dist.) |--------------------------------------| |--------------------------------------| |--------------------------------------| |-9-9-9-9-12-12-12-12-11-12-11-4-4-/-7-| |-9-9-9-9-12-12-10-12-11-12-11-4-4-/-7-| |-7-7-7-7-10-10-10-10-9--10-9--2-2-/-5-|
|--------------------------------------| |--------------------------------------| |--------------------------------------| |-9-9-9-9-12-12-12-12-11-12-11-4-4-/-7-| |-9-9-9-9-12-12-10-12-11-12-11-4-4-/-7-| |-7-7-7-7-10-10-10-10-9--10-9--2-2-/-5-|
|-------------|------------|-----------------| |-------------|------------|-----------------| |-4-4-4-------|-4-4-4-7-x--|-444444444444444-| |-4-4-4-4-x-7-|-4-4-4-7-x-7|-444444444444444-| |-2-2-2-4-x-7-|-2-2-2-5-x-7|-222222222222222-| |-------2-x-5-|-----------5|-----------------|PM . . . . . . . . . . . .
CHORUS (dist.)
|-------------|-------------|---------------||-------------|-------------|---------------||-4-4-x-7-----|-4-4-x-7-----|-4-4-x-7-----4-||-4-4-x-7-4/7-|-4-4-x-7-4/7-|-4-4-x-7-4/7-4-||-2-2-x-5-4/7-|-2-2-x-5-4/7-|-2-2-x-5-4/7-2-||---------2/5-|---------2/5-|---------2/5---|
pause
|-------------|-------------|---------------||-------------|-------------|---------------||-4-4-x-7-----|-4-4-x-7-----|-4-4-x-7-----4-||-4-4-x-7-4/7-|-4-4-x-7-4/7-|-4-4-x-7-4/7-4-||-2-2-x-5-4/7-|-2-2-x-5-4/7-|-2-2-x-5-4/7-2-||---------2/5-|---------2/5-|---------2/5---|
pause (drum fill) POST-CHORUS (dist.)
|-------------||-------------||-4-4-x-7-----||-4-4-x-7-4/7-||-2-2-x-5-4/7-||---------2/5-|
|-------------|-------------------||-------------|-------------------||-4-4-x-7-----|-99999999-55555555-||-4-4-x-7-4/7-|-99999999-55555555-||-2-2-x-5-4/7-|-77777777-33333333-||---------2/5-|-------------------|
|-------------|----------||-------------|----------||-4-4-x-7-----|----------||-4-4-x-7-4/7-|-22222222-||-2-2-x-5-4/7-|-22222222-||---------2/5-|-00000000-|
|-------------|---||-------------|---||-4-4-x-7-----|-4-||-4-4-x-7-4/7-|-4-||-2-2-x-5-4/7-|-2-||---------2/5-|---|
EGYPTIAN RIFF (clean)
|------------------------||------------------------||------------------------||-----1-2-4-2-1----------||-2-3-----------3-2-2-3-2||------------------------|
|------------------------||------------------------||------------------------||-----1-2-4-2-1----------||-2-3-----------3-2-2-3-2||------------------------|
|------------------------||------------------------||------------------------||-----1-2-4-2-1----------||-2-3-----------3-2-2-3-2||------------------------|
|-------------------||-------------------||-------------------||-----1-2-4-2-1-----||-2-3-----------3-2-||-------------------|
VERSE (dist.)|-------------|------------||-------------|------------||-4-4-4-------|-4-4-4-7-x--||-4-4-4-4-x-7-|-4-4-4-7-x-7||-2-2-2-4-x-7-|-2-2-2-5-x-7||-------2-x-5-|-----------5|
|-------------|------------||-------------|------------||-4-4-4-------|-4-4-4-7-x--||-4-4-4-4-x-7-|-4-4-4-7-x-7||-2-2-2-4-x-7-|-2-2-2-5-x-7||-------2-x-5-|-----------5|
|-------------|------------||-------------|------------||-4-4-4-------|-4-4-4-7-x--||-4-4-4-4-x-7-|-4-4-4-7-x-7||-2-2-2-4-x-7-|-2-2-2-5-x-7||-------2-x-5-|-----------5|
|-------------|------------||-------------|------------||-4-4-4-------|-4-4-4-7-x--||-4-4-4-4-x-7-|-4-4-4-7-x-7||-2-2-2-4-x-7-|-2-2-2-5-x-7||-------2-x-5-|-----------5|
BRIDGE (dist.) |--------------------------------------| |--------------------------------------| |--------------------------------------| |-9-9-9-9-12-12-12-12-11-12-11-4-4-/-7-| |-9-9-9-9-12-12-10-12-11-12-11-4-4-/-7-| |-7-7-7-7-10-10-10-10-9--10-9--2-2-/-5-|
|--------------------------------------| |--------------------------------------| |--------------------------------------| |-9-9-9-9-12-12-12-12-11-12-11-4-4-/-7-| |-9-9-9-9-12-12-10-12-11-12-11-4-4-/-7-| |-7-7-7-7-10-10-10-10-9--10-9--2-2-/-5-|
|-------------|------------|-----------------| |-------------|------------|-----------------| |-4-4-4-------|-4-4-4-7-x--|-444444444444444-| |-4-4-4-4-x-7-|-4-4-4-7-x-7|-444444444444444-| |-2-2-2-4-x-7-|-2-2-2-5-x-7|-222222222222222-| |-------2-x-5-|-----------5|-----------------|PM . . . . . . . . . . . .
CHORUS (dist.)
|-------------|-------------|---------------||-------------|-------------|---------------||-4-4-x-7-----|-4-4-x-7-----|-4-4-x-7-----4-||-4-4-x-7-4/7-|-4-4-x-7-4/7-|-4-4-x-7-4/7-4-||-2-2-x-5-4/7-|-2-2-x-5-4/7-|-2-2-x-5-4/7-2-||---------2/5-|---------2/5-|---------2/5---|
pause
|-------------|-------------|---------------||-------------|-------------|---------------||-4-4-x-7-----|-4-4-x-7-----|-4-4-x-7-----4-||-4-4-x-7-4/7-|-4-4-x-7-4/7-|-4-4-x-7-4/7-4-||-2-2-x-5-4/7-|-2-2-x-5-4/7-|-2-2-x-5-4/7-2-||---------2/5-|---------2/5-|---------2/5---|
pause (drum fill) POST-CHORUS (dist.)
|-------------||-------------||-4-4-x-7-----||-4-4-x-7-4/7-||-2-2-x-5-4/7-||---------2/5-|
|-------------|-------------------||-------------|-------------------||-4-4-x-7-----|-99999999-55555555-||-4-4-x-7-4/7-|-99999999-55555555-||-2-2-x-5-4/7-|-77777777-33333333-||---------2/5-|-------------------|
|-------------|----------||-------------|----------||-4-4-x-7-----|----------||-4-4-x-7-4/7-|-22222222-||-2-2-x-5-4/7-|-22222222-||---------2/5-|-00000000-|
|-------------|---||-------------|---||-4-4-x-7-----|-4-||-4-4-x-7-4/7-|-4-||-2-2-x-5-4/7-|-2-||---------2/5-|---|
EGYPTIAN RIFF (clean)
|------------------------||------------------------||------------------------||-----1-2-4-2-1----------||-2-3-----------3-2-2-3-2||------------------------|
|------------------------||------------------------||------------------------||-----1-2-4-2-1----------||-2-3-----------3-2-2-3-2||------------------------|
|------------------------||------------------------||------------------------||-----1-2-4-2-1----------||-2-3-----------3-2-2-3-2||------------------------|
|------------------------||------------------------||------------------------||-----1-2-4-2-1----------||-2-3-----------3-2-2-3-2||------------------------|
BRIDGE (dist.) |--------------------------------------| |--------------------------------------| |--------------------------------------| |-9-9-9-9-12-12-12-12-11-12-11-4-4-/-7-| |-9-9-9-9-12-12-10-12-11-12-11-4-4-/-7-| |-7-7-7-7-10-10-10-10-9--10-9--2-2-/-5-|
|--------------------------------------| |--------------------------------------| |--------------------------------------| |-9-9-9-9-12-12-12-12-11-12-11-4-4-/-7-| |-9-9-9-9-12-12-10-12-11-12-11-4-4-/-7-| |-7-7-7-7-10-10-10-10-9--10-9--2-2-/-5-|
|-------------|------------|-----------------| |-------------|------------|-----------------| |-4-4-4-------|-4-4-4-7-x--|-444444444444444-| |-4-4-4-4-x-7-|-4-4-4-7-x-7|-444444444444444-| |-2-2-2-4-x-7-|-2-2-2-5-x-7|-222222222222222-| |-------2-x-5-|-----------5|-----------------|PM . . . . . . . . . . . .
CHORUS (dist.)
|-------------|-------------|---------------||-------------|-------------|---------------||-4-4-x-7-----|-4-4-x-7-----|-4-4-x-7-----4-||-4-4-x-7-4/7-|-4-4-x-7-4/7-|-4-4-x-7-4/7-4-||-2-2-x-5-4/7-|-2-2-x-5-4/7-|-2-2-x-5-4/7-2-||---------2/5-|---------2/5-|---------2/5---|
pause
|-------------|-------------|---------------||-------------|-------------|---------------||-4-4-x-7-----|-4-4-x-7-----|-4-4-x-7-----4-||-4-4-x-7-4/7-|-4-4-x-7-4/7-|-4-4-x-7-4/7-4-||-2-2-x-5-4/7-|-2-2-x-5-4/7-|-2-2-x-5-4/7-2-||---------2/5-|---------2/5-|---------2/5---|
pause (drum fill) POST-CHORUS (dist.)
|-------------||-------------||-4-4-x-7-----||-4-4-x-7-4/7-||-2-2-x-5-4/7-||---------2/5-|
|-------------|-------------------||-------------|-------------------||-4-4-x-7-----|-99999999-55555555-||-4-4-x-7-4/7-|-99999999-55555555-||-2-2-x-5-4/7-|-77777777-33333333-||---------2/5-|-------------------|
|-------------|----------||-------------|----------||-4-4-x-7-----|----------||-4-4-x-7-4/7-|-22222222-||-2-2-x-5-4/7-|-22222222-||---------2/5-|-00000000-|
|-------------|---||-------------|---||-4-4-x-7-----|-4-||-4-4-x-7-4/7-|-4-||-2-2-x-5-4/7-|-2-||---------2/5-|---|
Tap to rate this tab
 
# A B C D E F G H I J K L M N O P Q R S T U V W X Y Z