Offspring - One Hundred Punks tab

INTRO

------------------------|------------------------|-10----10---------------|-10----10-10-10-10-10---| 8X--8-----8-10-10-10-10---|-----------8--8--8--8---|
------------------|------------------|--------7--7-7-7--|-7-7-7--7--7-7-7--| 6X-7-7-7--5--5-5-5--|-5-5-5------------|\P.M./
---------------------------|---------------------------|-------7--10--10-----------|-7-7---7--10--10--10-10-10-|-7-7---5---8---8--10-10-10-|-5-5---------------8--8--8-|
-------------------------------------------------------------------|-------------------------------------------------------------------|-------------------------------------------------------------------|-7--7-7-7-7-7-7-7-7-7-7-7-7-7-7-7-7-7-7-7--7--7--7--9--9--9--9--9--|-7--7-7-7-7-7-7-7-7-7-7-7-7-7-7-7-7-7-7-7--7--7--7--9--9--9--9--9--|-5--5-5-5-5-5-5-5-5-5-5-5-5-5-5-5-5-5-5-5--5--5--5--7--7--7--7--7--| \...............P.M................../
------------------------|------------------------|-10----10---------------|-10----10-10-10-10-10---| 4X--8-----8-10-10-10-10---|-----------8--8--8--8---|
------------------|------------------|--------7--7-7-7--|-7-7-7--7--7-7-7--| 6X-7-7-7--5--5-5-5--|-5-5-5------------|\P.M./
(with)2nd guitar ------15151515
-1414-14141414-1313---------|--------------| 1x--------------|--------------|
---------------------------|---------------------------|-------7--10--10-----------|-7-7---7--10--10--10-10-10-|-7-7---5---8---8--10-10-10-|-5-5---------------8--8--8-|
-------------------------------------------------------------------|-------------------------------------------------------------------|-------------------------------------------------------------------|-7--7-7-7-7-7-7-7-7-7-7-7-7-7-7-7-7-7-7-7--7--7--7--9--9--9--9--9--|-7--7-7-7-7-7-7-7-7-7-7-7-7-7-7-7-7-7-7-7--7--7--7--9--9--9--9--9--|-5--5-5-5-5-5-5-5-5-5-5-5-5-5-5-5-5-5-5-5--5--5--5--7--7--7--7--7--| \................P.M................./
------------------------|------------------------|-10----10---------------|-10----10-10-10-10-10---| 4X--8-----8-10-10-10-10---|-----------8--8--8--8---|
---------------------------------|---------------------------------|---------------------------------|-7-7-7-7-7-7-7-7-----------------| 10x-6-6-6-6-6-6-6-6-7-7-7-7-7-7-7-7-|-----------------6-6-6-6-6-6-6-6-|\............P.M................/
-----------------------------|-----------------------------|-----------------------------|-7-7-7-7-7-7-7-7-7-7-7-7-7---|-7-7-7-7-7-7-7-7-7-7-7-7-7---|-5-5-5-5-5-5-5-5-5-5-5-5-5---|
Solo----------------14--14-14-14---------------------------------------------|-13--13-13-13----------------12-15-121212-111111-101010-999--------------|------------------------------------------------------------888-444-777--|-------------------------------------------------------------------------|-------------------------------------------------------------------------|-------------------------------------------------------------------------|-------------------------------------------------------------------------|\...........BEND.........../
------------------|------------------|--------7--7-7-7--|-7-7-7--7--7-7-7--| 6X-7-7-7--5--5-5-5--|-5-5-5------------|\P.M./
---------------------------|---------------------------|-------7--10--10-----------|-7-7---7--10--10--10-10-10-|-7-7---5---8---8--10-10-10-|-5-5---------------8--8--8-|
-------------------------------------------------------------------|-------------------------------------------------------------------|-------------------------------------------------------------------|-7--7-7-7-7-7-7-7-7-7-7-7-7-7-7-7-7-7-7-7--7--7--7--9--9--9--9--9--|-7--7-7-7-7-7-7-7-7-7-7-7-7-7-7-7-7-7-7-7--7--7--7--9--9--9--9--9--|-5--5-5-5-5-5-5-5-5-5-5-5-5-5-5-5-5-5-5-5--5--5--5--7--7--7--7--7--| \................P.M................./
------------------------|------------------------|-10----10---------------|-10----10-10-10-10-10---| 4X--8-----8-10-10-10-10---|-----------8--8--8--8---|
----------------|----------------|-7--7--10-10-10-|-7--7--10-10-10-| 4x-5--5---8--8--8-|----------------|
Repeat the rest.
Tap to rate this tab
 
# A B C D E F G H I J K L M N O P Q R S T U V W X Y Z