Oh Sleeper - Commissioned By Kings tab

[Commissioned By Kings]
[Son Of The Morning]
[Oh Sleeper]

Tuning: Drop D
joshuaoliveira@hotmail.com

[Intro] - [00:00] - [00:29]

[Riff 1, Guitar 1 & 2] - [00:29] - [00:43]----| 2x- --------------------------------------------|- --------------------------------------------|- -7-------10------5--------------------------|- -x-------x-------x--------------------------|- -5(16x)--8(16x)--3(32x)---------------------|- --------------------------------------------|
-- ---------------------------------|- -10----------------------10------|- -x-------7---------------x-------|- -8(16x)--x---------------7(16x)--|- ---------5(32x)------------------|- ---------------------------------|
----------------------------------------------------------------------------
[Riff 2, Guitar 1 & 2] - [00:43] - [01:02]----------------------------| 2x- --------------------------------------------------------------------|- ------------------------------------------10------------------------|- ---------------------------8p7----------8----8-7\5------------------|- -------------------8h10h12-------8-7-10------------7-8--------------|- -5---------8h10h12-------------------------------------0-5----------|- ---7-8-0-----------------------0---------------------------7-8-0----|
PM . ....-- -------------------------------------------------------------------|- ------------------------------------------10-----------------------|- ---------------------------8p7----------8----8-7\5-----------------|- -------------------8h10h12-------8-7-10------------7-8-------------|- -5---------8h10h12-------------------------------------0-5---------|- ---7-8-0-----------------------0---------------------------7-8-0---|PM . ....
- -------------------------------------------------------10h11h13\17p13-----|- -----------------------------------------------10h11h13--------------15---|- -----------------8p7---7p5--------------8h10h12------------------------14-|- ---------8h10h12-------------8p7-8h10h12----------------------------------|- -8h10h12------------------------------------------------------------------|- ---------------------0-----0----------------------------------------------|
PM . .-- -------------------------------------------------|- -------------------------------------------------|- -----------------8p7-----------------------------|- ---------8h10h12-------8p7--10p8-1--1--1--1--1-1-|- -8h10h12-------------------------1--1--1--1--1-1-|- ---------------------0-----0-----1--1--1--1--1-1-|PM . .
----------------------------------------------------------------------------
[Riff 3, Guitar 1 & 2] - [01:02] - [01:08]- -----------------------------------------------------------------|- -----------------------------------------------------------------|- -8---------------7---------------5---------------3---------------|- -x---------------x---------------x---------------x---------------|- -6(16x)----------5(16x)----------3(16x)----------1(16x)----------|- -----------------------------------------------------------------|
-- -----------------------------------------------------------------|- -----------------------------------------------------------------|- -----------------------------------------------------------------|- -----------------------------------------------------------------|- -5--5--5--5--5-5-5--5--5--5--5-5-3--3--3--3--3-3-1--1--1--1--1-1-|- -1--1--1-11-11-1-1--1--1-11-11-1-1--1--1-11-11-1-1--1--1-11-11-1-|PM . . . . . . . .
----------------------------------------------------------------------------
[Riff 4, Guitar 1 & 2] - [01:08] - [01:24]- -------------------------------------------------------| 1- -------------------------------------------------------|- ----3--3--3-----------------------3--3--3--------------|- ----7--7--7-----------------------7--7--7--------------|- -------------------------5-------------------------5---|- -0-----------5-8-0---------1-1-0-----------5-8-0-0---3-|
PM .-- -------------------------------------------------------|- -------------------------------------------------------|- -------------------3--3--------------------------------|- -------------------7--7--------------------------------|- -------------------------5-------------------------5---|- -0-----------5-8-0---------1-1-0-----------5-8-0-0---3-|PM .
- --------------------------10h11h13/17p13-------| 2- -----------------10h11h13----------------15----|- ---------8h10h12----------------------------14-|- -8h10h12---------------------------------------|- -----------------------------------------------|- -----------------------------------------------|
-- -----------------|- -----------------|- -----------------|- -1--1--1--1--1-1-|- -1--1--1--1--1-1-|- -1--1--1--1--1-1-|
- -------------------------------------------------------| 3- -------------------------------------------------------|- -------------------3--3--------------------------------|- -------------------7--7--------------------------------|- -------------------------5-------------------------5---|- -0-----------5-8-0---------1-1-0-----------5-8-0-0---3-|
PM .-- -------------------------------------------------------|- -------------------------------------------------------|- ----3--3--3-----------------------3--3--3--------------|- ----7--7--7-----------------------7--7--7--------------|- -------------------------5-------------------------5---|- -0-----------5-8-0---------1-1-0-----------5-8-0-0---3-|PM .
- --------------------------10h11h13/17p13-------| 4- -----------------10h11h13----------------15----|- ---------8h10h12----------------------------14-|- -8h10h12---------------------------------------|- -----------------------------------------------|- -----------------------------------------------|
-- -----------------|- -----------------|- -----------------|- -1--1--1--1--1-1-|- -1--1--1--1--1-1-|- -1--1--1--1--1-1-|
- -------------------15h17h18-17h18h20/22p17-------| 5- ----------15h16h18-------------------------18----|- -14h15h17-------------------------------------19-|- -------------------------------------------------|- -------------------------------------------------|- -------------------------------------------------|
-- -----------------|- -----------------|- -----------------|- -3--3--3--3--3-3-|- -3--3--3--3--3-3-|- -3--3--3--3--3-3-|
---------------------------------------------------------------------------- [Riff 1, Guitar 1 & 2] - [01:24] - [01:38] - 2x ----------------------------------------------------------------------------
[Riff 5] - [01:38] - [01:48]- -------------------------------------------|- -------------------------------------------|- -------------------------------------------|- -------------------------------------------|- -------------------------------------------|- -8(16x)--10(16x)--0(32x)--8(16x)--10(16x)--|
----------------------------------------------------------------------------
[Riff 6, Guitar 1 & 2] - [01:48] - [02:02]- -------------------------------------------------------------------|- ------------------------------------------10-----------------------|- ---------------------------8p7----------8----8-7\5-----------------|- -------------------8h10h12-------8-7-10------------7-8-------------|- -5---------8h10h12-------------------------------------0-5---------|- ---7-8-0-----------------------0---------------------------7-8-0---|
PM . ....-- -------------------------------------------------------------------|- ------------------------------------------10-----------------------|- ---------------------------8p7----------8----8-7\5-----------------|- -------------------8h10h12-------8-7-10------------7-8-------------|- -5---------8h10h12-------------------------------------0-5---------|- ---7-8-0-----------------------0---------------------------7-8-0---|PM . ....
- --------------------------------------------------------------------|- --------------------------------------------------------------------|- -----------------8p7---7p5--------8p7--------------8p7---7p5--------|- ---------8h10h12-------------8p7--------8p7---10p8-------------8p7--|- -8h10h12------------------------------------------------------------|- ---------------------0-----0----------0-----0----------0-----0------|
PM . . . . . .-- --------------------------------------------------------------------|- --------------------------------------------------------------------|- -----------------8p7--------------8p7---7p5--------8p7--------------|- ---------8h10h12-------8p7---10p8-------------8p7--------8p7---10p8-|- -8h10h12------------------------------------------------------------|- ---------------------0-----0----------0-----0----------0-----0------|PM . . . . . .
- ---------------------------------|- ---------------------------------|- -3---3---3---3---5---5---5---5---|- ---7---7---7---7---8---8---8---8-|- ---------------------------------|- ---------------------------------|
-- ---------------------------------|- ---------------------------------|- -3---3---3---3---3---3---3---3---|- ---7---7---7---7---7---7---7---7-|- ---------------------------------|- ---------------------------------|
----------------------------------------------------------------------------
[Riff 7] - [02:02] - [02:12]- ---------|- ---------|- ---------|- -0~------|- -0~------|- -0~------|
[Riff 8] - [02:12] - [02:52]------------| 2x- ----------------------------13--------|- -3~----5~----6~----------10----10-----|- -2~----3~----7~-------12----------12--|- -0~----3~----8~----11-----------------|- --------------------------------------|- --------------------------------------|
at [02:38] best the 5, on the 5th string (from the button) ----------------------------------------------------------------------------
[Riff 9, Guitar 1 & 2] - [02:52] - [03:05]- -----------------------------------------------------|- -----------------------------------------------------|- -10--------12---------6---------10--------12---------|- -x---------x----------x---------x---------x----------|- -8(32x)----10(32x)----4(32x)----8(16x)----10(16x)----|- -----------------------------------------------------|
-- -----------------------------------------------------|- -----------------------------------------------------|- -14--------15---------12--------14--------15---------|- -x---------x----------x---------x---------x----------|- -12(32x)---13(32x)----10(32x)---12(16x)---13(16x)----|- -----------------------------------------------------|
----------------------------------------------------------------------------
[Riff 10, Guitar 1 & 2] - [03:05] - [03:22]- -------------------|------|- -------------------|------|- -14--12--10--9---7-|------|- -x---x---x---x---x-|-12\--| end with slide out on 12\- -12--10--8---7---5-|-12\--|- -------------------|-12\--|
-- -------------------|------|- -------------------|------|- -14--15--17--19--7-|------|- -x---x---x---x---x-|-12\--| end with slide out on 12\- -12--13--15--17--5-|-12\--|- -------------------|-12\--|
the strum pattern isnt that hard i kno you can figure it out :P these are the chords in order, i just dint wanna type for a year.. ----------------------------------------------------------------------------
[Riff 11, Guitar 1 & 2] - [03:22] - [03:38]- -------------------------------------------------------| 1- -------------------------------------------------------|- ----3--3--3--------------------------------------------|- ----7--7--7--------------------------------------------|- -------------------------5-------------------------5---|- -0-----------5-8-0---12\---1-1-0-----------5-8-0-0---3-|
PM .-- -------------------------------------------------------|- -------------------------------------------------------|- ----------------------------------3--3--3--------------|- ----------------------------------7--7--7--------------|- -------------------------5-------------------------5---|- -0-----------5-8-0---12\---1-1-0-----------5-8-0-0---3-|PM .
- --------------------------10h11h13/17p13-------| 2- -----------------10h11h13----------------15----|- ---------8h10h12----------------------------14-|- -8h10h12---------------------------------------|- -----------------------------------------------|- -----------------------------------------------|
-- -----------------|- -----------------|- -----------------|- -1--1--1--1--1-1-|- -1--1--1--1--1-1-|- -1--1--1--1--1-1-|
- -------------------------------------------------------| 3- -------------------------------------------------------|- -------------------3--3--------------------------------|- -------------------7--7--------------------------------|- -------------------------5-------------------------5---|- -0-----------5-8-0---------1-1-0-----------5-8-0-0---3-|
PM .-- -------------------------------------------------------|- -------------------------------------------------------|- ----3--3--3-----------------------3--3--3--------------|- ----7--7--7-----------------------7--7--7--------------|- -------------------------5-------------------------5---|- -0-----------5-8-0---------1-1-0-----------5-8-0-0---3-|PM . .
- --------------------------10h11h13/17p13-------| 4- -----------------10h11h13----------------15----|- ---------8h10h12----------------------------14-|- -8h10h12---------------------------------------|- -----------------------------------------------|- -----------------------------------------------|
-- -----------------|- -----------------|- -----------------|- -1--1--1--1--1-1-|- -1--1--1--1--1-1-|- -1--1--1--1--1-1-|
- -------------------15h17h18-17h18h20/22p17----------| 5- ----------15h16h18-------------------------18-------|- -14h15h17-------------------------------------19----|- ----------------------------------------------------|- -------------------------------------------------17-|- ----------------------------------------------------|
-- -----------------|- -----------------|- -----------------|- -3--3--3--3--3-3-|- -3--3--3--3--3-3-|- -3--3--3--3--3-3-|
----------------------------------------------------------------------------
[Riff 12] - [03:38] - [03:45]- ---------|- ---------|- ---------|- -0~------|- -0~------|- -0~------|
---------------------------------------------------------------------------- [Symbols] h Hammer On p Pull Off AP... Alternate Pick notes with (...) under them / Slide Up \ Slide Down PM... Palm Mute notes with (...) under them ( x) Play note x amount of times ~ Let Ring :D
Tap to rate this tab
 
# A B C D E F G H I J K L M N O P Q R S T U V W X Y Z