Old Mans Child - God Of Impeity tab


                       OLD MAN'S CHILD-GOD OF IMPIETY
                       From the Album ILL-NATURED SPIRITUAL INVASION
                       

                      

Tapped by TheUnspeakable...

/     slide up
\     slide down
p     pull on
h     hammer on
~     vibrato
.     palm mute


Main Riffs may tremola picking!!



Tuning: Standard

|----------------------||----------------------||----------------------||---9---10----12----14-||-7---8----10----12----||----------------------|
|--------------------------------------------||--------------------------------------------||--------------------------------------------||----141214-10-14-9-14-----141214-10-14-9-14-||-12--------------------12-------------------||--------------------------------------------|
|------------------------------------------------||------------------------------------------------||------------------------------------------------||-12-151415-12-15-10-15---12-151415-12-15----14--||-----------------------------------------11-----||------------------------------------------------|
|-----------------------------------------------------------------||-----------------------------------------------------------------||-----------------------------------------------------------------||---979-5-9-4-9----979-5-9-7-10----979-5-9-4-9----10-9-7----------||-7--------------7---------------7--------------7--------10-9-7-6-||-----------------------------------------------------------------|
|--------------------------------------------||--------------------------------------------||--------------------------------------------||----141214-10-14-9-14-----141214-10-14-9-14-||-12--------------------12-------------------||--------------------------------------------|
|------------------------------------------------||------------------------------------------------||------------------------------------------------||-12-151415-12-15-10-15---12-151415-12-15----14--||-----------------------------------------11-----||------------------------------------------------|
|--------------------------------------------||--------------------------------------------||--------------------------------------------||----141214-10-14-9-14-----141214-10-14-9-14-||-12--------------------12-------------------||--------------------------------------------|
note: different ending|------------------------|-------------------------||------------------------|-------------------------||------------------------|-------------------------||-12-151415-12-15-10-15--|-12-14--10-12--9-10-9----||------------------------|----------------------10-||------------------------|-------------------------|
... ... ... ... ... ... ... ... ... ... ...|----------------------------------------------------------------------||----------------------------------------------------------------------||----------------------------------------------------------------------||-9-----999-777-5-4-----444-777-5-9-----999-777-5--4------4-8------8-9-||-7---------------2-222-----------7----------------2-222--2-6-666--6-7-||-0-000---------------------------0-000--------------------------------|
1.__ 2._|--------------|----|---||--------------|----|---||--------------|----|---||--------------|----|---||-2----5----7--|-10-|-9-||-0----3----5--|--8-|-7-|
clean part|------------------------------------------||-------8---------8----------7---------7---||-----9---9-----9---9------8---8-----8---8-||---9---------9----------9---------9-------||-7---------7----------6---------6---------||------------------------------------------|
... ...|------------------------------------------||------------------------------------------||------------------------------------------||----------------------4------8-----9------||----------------------2--222-6-666-7------||------------------------------------------|
| ||------------------------------------------||-------8---------8----------7---------7---||-----9---9-----9---9------8---8-----8---8-||---9---------9----------9---------9-------||-7---------7----------6---------6---------||------------------------------------------|
under solo|------------------------------------------||------------------------------------------||------------------------------------------||-9--------4--------9--------4-------8-----||-7--------2--------7--------2-------6-----||------------------------------------------|
| ||------------------------------------------||-------8---------8----------7---------7---||-----9---9-----9---9------8---8-----8---8-||---9---------9----------9---------9-------||-7---------7----------6---------6---------||------------------------------------------|
. ... ... ... ... ... ... .... ...|---------------------------------------------------------------||---------------------------------------------------------------||---------------------------------------------------------------||---------------------------------------------------------------||-----------8-5---7---------9-7---6---------8-5----777-7--666-6-||-0-000-000-----8---000-000-----9---000-000-----8--555-5--444-4-|
... ... ... ... ... ... ... ... ... ... ...|----------------------------------------------------------------------||----------------------------------------------------------------------||----------------------------------------------------------------------||-9-----999-777-5-4-----444-777-5-9-----999-777-5--4------4-8------8-9-||-7---------------2-222-----------7----------------2-222--2-6-666--6-7-||-0-000---------------------------0-000--------------------------------|
1.__ 2._|--------------|----|---||--------------|----|---||--------------|----|---||--------------|----|---||-2----5----7--|-10-|-9-||-0----3----5--|--8-|-7-|
|-------------------------------------------||-------------------------------------------||-------------------------------------------||---9---10----12----14---9---10----12----14-||-7---8----10----12----7---8----10----12----||-------------------------------------------|
|-----||-----||-----||-----||-12\-||-----|
Tap to rate this tab
 
# A B C D E F G H I J K L M N O P Q R S T U V W X Y Z