Old Mans Child - God Of Impiety tab

Old Man's Child
God of impiety/Ill natured spirit invasion
Guitar1
                                                
E||--------------------------------------------|B||--------------------------------------------|G||--------------------------------------------|D||------9-9-----10-10-------12-12-------13-13-|A||--7-7-----8-8-------10-10-------11-11-------|E||--------------------------------------------|
------------------------------------------------|------------------------------------------------|------------------------------------------------|--------14-14-12-12-14-14-10-10-14-14-9-9-14-14-|--12-12-----------------------------------------|------------------------------------------------|
------------------------------------------------|------------------------------------------------|------------------------------------------------|--------14-14-12-12-14-14-10-10-14-14-9-9-14-14-|--12-12-----------------------------------------|------------------------------------------------|
------------------------------------------------|------------------------------------------------|------------------------------------------------|--0-0-15-15-14-14-15-15-12-12-15-15-10-10-15-15-|------------------------------------------------|------------------------------------------------|
------------------------------------------------|------------------------------------------------|------------------------------------------------|--0-0-15-15-14-14-15-15-12-12-14-14-------14-14-|------------------------------------11-11-------|------------------------------------------------|
------------------------------------------------|------------------------------------------------|------------------------------------------------|--------14-14-12-12-14-14-10-10-14-14-9-9-14-14-|--12-12-----------------------------------------|------------------------------------------------|
------------------------------------------------|------------------------------------------------|------------------------------------------------|--------14-14-12-12-14-14-10-10-14-14-9-9-14-14-|--12-12-----------------------------------------|------------------------------------------------|
------------------------------------------------|------------------------------------------------|------------------------------------------------|--0-0-15-15-14-14-15-15-12-12-15-15-10-10-15-15-|------------------------------------------------|------------------------------------------------|
------------------------------------------------|------------------------------------------------|------------------------------------------------|--0-0-15-15-14-14-15-15-12-12-14-14-------14-14-|------------------------------------11-11-------|------------------------------------------------|
------------------------------------------------|------------------------------------------------|------------------------------------------------|--------14-14-12-12-14-14-10-10-14-14-9-9-14-14-|--12-12-----------------------------------------|------------------------------------------------|
------------------------------------------------|------------------------------------------------|------------------------------------------------|--------14-14-12-12-14-14-10-10-14-14-9-9-14-14-|--12-12-----------------------------------------|------------------------------------------------|
------------------------------------------------|------------------------------------------------|------------------------------------------------|--0-0-15-15-14-14-15-15-12-12-15-15-10-10-15-15-|------------------------------------------------|------------------------------------------------|
------------------------------------------------|------------------------------------------------|------------------------------------------------|--0-0-15-15-14-14-15-15-12-12-14-14-------14-14-|------------------------------------11-11-------|------------------------------------------------|
------------------------------------------------|------------------------------------------------|------------------------------------------------|--------14-14-12-12-14-14-10-10-14-14-9-9-14-14-|--12-12-----------------------------------------|------------------------------------------------|
------------------------------------------------|------------------------------------------------|------------------------------------------------|--------14-14-12-12-14-14-10-10-14-14-9-9-14-14-|--12-12-----------------------------------------|------------------------------------------------|
------------------------------------------------|------------------------------------------------|------------------------------------------------|--0-0-15-15-14-14-15-15-12-12-15-15-10-10-15-15-|------------------------------------------------|------------------------------------------------|
------------------------------------------------|------------------------------------------------|------------------------------------------------|--0-0-15-15-14-14-15-15-12-12-14-14-------14-14-|------------------------------------11-11-------|------------------------------------------------|
----------------------------------|------------------------------------|----------------------------------|------------------------------------|----------------------------------|------------------------------------|------9-9-7-7-9-9-5-5-9-9-4-4-9-9-|------9-9-7-7-9-9-5-5-9-9-7-7-10-10-|--7-7-----------------------------|--7-7-------------------------------|----------------------------------|------------------------------------|
----------------------------------|--------------------------------------|----------------------------------|--------------------------------------|----------------------------------|--------------------------------------|------9-9-7-7-9-9-5-5-9-9-4-4-9-9-|------10-10-9-9-7-7-------------------|--7-7-----------------------------|--6-6---------------10-10-9-9-7-7-6-6-|----------------------------------|--------------------------------------|
----------------------------------|------------------------------------|----------------------------------|------------------------------------|----------------------------------|------------------------------------|------9-9-7-7-9-9-5-5-9-9-4-4-9-9-|------9-9-7-7-9-9-5-5-9-9-7-7-10-10-|--7-7-----------------------------|--7-7-------------------------------|----------------------------------|------------------------------------|
----------------------------------|--------------------------------------|----------------------------------|--------------------------------------|----------------------------------|--------------------------------------|------9-9-7-7-9-9-5-5-9-9-4-4-9-9-|------10-10-9-9-7-7-------------------|--7-7-----------------------------|--6-6---------------10-10-9-9-7-7-6-6-|----------------------------------|--------------------------------------|
------------------------------------------------|------------------------------------------------|------------------------------------------------|--------14-14-12-12-14-14-10-10-14-14-9-9-14-14-|--12-12-----------------------------------------|------------------------------------------------|
------------------------------------------------|------------------------------------------------|------------------------------------------------|--------14-14-12-12-14-14-10-10-14-14-9-9-14-14-|--12-12-----------------------------------------|------------------------------------------------|
------------------------------------------------|------------------------------------------------|------------------------------------------------|--0-0-15-15-14-14-15-15-12-12-15-15-10-10-15-15-|------------------------------------------------|------------------------------------------------|
------------------------------------------------|------------------------------------------------|------------------------------------------------|--0-0-15-15-14-14-15-15-12-12-14-14-------14-14-|------------------------------------11-11-------|------------------------------------------------|
------------------------------------------------|------------------------------------------------|------------------------------------------------|--------14-14-12-12-14-14-10-10-14-14-9-9-14-14-|--12-12-----------------------------------------|------------------------------------------------|
------------------------------------------------|------------------------------------------------|------------------------------------------------|--------14-14-12-12-14-14-10-10-14-14-9-9-14-14-|--12-12-----------------------------------------|------------------------------------------------|
------------------------------------------------|------------------------------------------------|------------------------------------------------|--0-0-15-15-14-14-15-15-12-12-15-15-10-10-15-15-|------------------------------------------------|------------------------------------------------|
------------------------------------------------|------------------------------------------------|------------------------------------------------|--0-0-15-15-14-14-15-15-12-12-14-14-------14-14-|------------------------------------11-11-------|------------------------------------------------|
------------------------------------------------|------------------------------------------------|------------------------------------------------|--------14-14-12-12-14-14-10-10-14-14-9-9-14-14-|--12-12-----------------------------------------|------------------------------------------------|
------------------------------------------------|------------------------------------------------|------------------------------------------------|--------14-14-12-12-14-14-10-10-14-14-9-9-14-14-|--12-12-----------------------------------------|------------------------------------------------|
------------------------------------------------|------------------------------------------------|------------------------------------------------|--0-0-15-15-14-14-15-15-12-12-15-15-10-10-15-15-|------------------------------------------------|------------------------------------------------|
------------------------------------------------|------------------------------------------------|------------------------------------------------|--0-0-15-15-14-14-15-15-12-12-14-14-------14-14-|------------------------------------11-11-------|------------------------------------------------|
------------------------------------------------|------------------------------------------------|------------------------------------------------|--------14-14-12-12-14-14-10-10-14-14-9-9-14-14-|--12-12-----------------------------------------|------------------------------------------------|
------------------------------------------------|------------------------------------------------|------------------------------------------------|--------14-14-12-12-14-14-10-10-14-14-9-9-14-14-|--12-12-----------------------------------------|------------------------------------------------|
------------------------------------------------|------------------------------------------------|------------------------------------------------|--0-0-15-15-14-14-15-15-12-12-15-15-10-10-15-15-|------------------------------------------------|------------------------------------------------|
--------------------------------------------|----------------------------------|--------------------------------------------|----------------------------------|--------------------------------------------|----------------------------------|--12-12-14-14-10-10-12-12-9-9-10-10-9-9-6-6-|------9-9-7-7-9-9-5-5-9-9-4-4-9-9-|--------------------------------------------|--7-7-----------------------------|--------------------------------------------|----------------------------------|
------------------------------------|----------------------------------|------------------------------------|----------------------------------|------------------------------------|----------------------------------|------9-9-7-7-9-9-5-5-9-9-7-7-10-10-|------9-9-7-7-9-9-5-5-9-9-4-4-9-9-|--7-7-------------------------------|--7-7-----------------------------|------------------------------------|----------------------------------|
--------------------------------------|----------------------------------|--------------------------------------|----------------------------------|--------------------------------------|----------------------------------|------10-10-9-9-7-7-------------------|------9-9-7-7-9-9-5-5-9-9-4-4-9-9-|--6-6---------------10-10-9-9-7-7-6-6-|--7-7-----------------------------|--------------------------------------|----------------------------------|
------------------------------------|----------------------------------|------------------------------------|----------------------------------|------------------------------------|----------------------------------|------9-9-7-7-9-9-5-5-9-9-7-7-10-10-|------9-9-7-7-9-9-5-5-9-9-4-4-9-9-|--7-7-------------------------------|--7-7-----------------------------|------------------------------------|----------------------------------|
--------------------------------------|--------------------------------|--------------------------------------|--------------------------------|--------------------------------------|--------------------------------|------10-10-9-9-7-7-------------------|--------------------------------|--6-6---------------10-10-9-9-7-7-6-6-|--7---------10-10-10--9-9-9--7--|--------------------------------------|-----0-0-0----------------------|
-----------------------------|--------------------------------|-----------------------------|--------------------------------|-----------------------------|--------------------------------|-----------------------------|--------------------------------|--6---------6-6-6--9-9-9--6--|--7---------10-10-10--9-9-9--7--|-----7-7-7-------------------|-----0-0-0----------------------|
----------------------------|--------------------------------|----------------------------|--------------------------------|----------------------------|--------------------------------|----------------------------|--------------------------------|--6---------6--9---------9--|--7---------10-10-10--9-9-9--7--|-----7-7-7--------7-7-7-----|-----0-0-0----------------------|
-----------------------------|--------------------------------|-----------------------------|--------------------------------|-----------------------------|--------------------------------|-----------------------------|--------------------------------|--6---------6-6-6--9-9-9--6--|--7---------10-10-10--9-9-9--7--|-----7-7-7-------------------|-----0-0-0----------------------|
----------------------------|--------------------------------|----------------------------|--------------------------------|----------------------------|--------------------------------|----------------------------|--------------------------------|--6---------6--9---------9--|--7---------10-10-10--9-9-9--7--|-----7-7-7--------7-7-7-----|-----0-0-0----------------------|
-----------------------------|--------------------------------|-----------------------------|--------------------------------|-----------------------------|--------------------------------|-----------------------------|--------------------------------|--6---------6-6-6--9-9-9--6--|--7---------10-10-10--9-9-9--7--|-----7-7-7-------------------|-----0-0-0----------------------|
----------------------------|--------------------------------|----------------------------|--------------------------------|----------------------------|--------------------------------|----------------------------|--------------------------------|--6---------6--9---------9--|--7---------10-10-10--9-9-9--7--|-----7-7-7--------7-7-7-----|-----0-0-0----------------------|
-----------------------------|--------------------------------|-----------------------------|--------------------------------|-----------------------------|--------------------------------|-----------------------------|--------------------------------|--6---------6-6-6--9-9-9--6--|--7---------10-10-10--9-9-9--7--|-----7-7-7-------------------|-----0-0-0----------------------|
----------------------------|----------------------|-------------------------|----------------------------|----------------------|-------------------------|----------------------------|----------------------|-------------------------|----------------------------|-------2---------5----|-------7----------10--9--|--6---------6--9---------9--|--2----2----5----5----|--7----7----10----10--9--|-----7-7-7--------7-7-7-----|--0---------3---------|--5---------8-----8---7--|
----------------------|----------------------|----------------------|----------------------|----------------------|----------------------|----------------------|----------------------|----------------------|-------2---------5----|-------7---------9----|-------2---------5----|--2----2----5----5----|--7----7----9----9----|--2----2----5----5----|--0---------3---------|--5---------7---------|--0---------3---------|
-------------------------|----------------------|----------------------|-------------------------|----------------------|----------------------|-------------------------|----------------------|----------------------|-------7----------10--9--|-------2---------5----|-------7---------9----|--7----7----10----10--9--|--2----2----5----5----|--7----7----9----9----|--5---------8-----8---7--|--0---------3---------|--5---------7---------|
----------------------|-------------------------|----------------------|----------------------|-------------------------|----------------------|----------------------|-------------------------|----------------------|-------2---------5----|-------7----------10--9--|-------2---------5----|--2----2----5----5----|--7----7----10----10--9--|--2----2----5----5----|--0---------3---------|--5---------8-----8---7--|--0---------3---------|
----------------------|----------------------|-------------------------|----------------------|----------------------|-------------------------|----------------------|----------------------|-------------------------|-------7---------9----|-------2---------5----|-------7----------10--9--|--7----7----9----9----|--2----2----5----5----|--7----7----10----10--9--|--5---------7---------|--0---------3---------|--5---------8-----8---7--|
----------------------|----------------------|----------------------|----------------------|----------------------|----------------------|-------2---------5----|-------7---------9----|--2----2----5----5----|--7----7----9----9----|--0---------3---------|--5---------7---------|
--------------------------------------------|--------------------------------------------|--------------------------------------------|------9-9-----10-10-------12-12-------13-13-|--7-7-----8-8-------10-10-------11-11-------|--------------------------------------------|
------------------------------------------------|------------------------------------------------|------------------------------------------------|--------14-14-12-12-14-14-10-10-14-14-9-9-14-14-|--12-12-----------------------------------------|------------------------------------------------|
------------------------------------------------|------------------------------------------------|------------------------------------------------|--------14-14-12-12-14-14-10-10-14-14-9-9-14-14-|--12-12-----------------------------------------|------------------------------------------------|
------------------------------------------------|------------------------------------------------|------------------------------------------------|--0-0-15-15-14-14-15-15-12-12-15-15-10-10-15-15-|------------------------------------------------|------------------------------------------------|
------------------------------------------------|------------------------------------------------|------------------------------------------------|--0-0-15-15-14-14-15-15-12-12-14-14-------14-14-|------------------------------------11-11-------|------------------------------------------------|
------------------------------------------------|------------------------------------------------|------------------------------------------------|--------14-14-12-12-14-14-10-10-14-14-9-9-14-14-|--12-12-----------------------------------------|------------------------------------------------|
------------------------------------------------|------------------------------------------------|------------------------------------------------|--------14-14-12-12-14-14-10-10-14-14-9-9-14-14-|--12-12-----------------------------------------|------------------------------------------------|
------------------------------------------------|------------------------------------------------|------------------------------------------------|--0-0-15-15-14-14-15-15-12-12-15-15-10-10-15-15-|------------------------------------------------|------------------------------------------------|
------------------------------------------------|------------------------------------------------|------------------------------------------------|--0-0-15-15-14-14-15-15-12-12-14-14-------14-14-|------------------------------------11-11-------|------------------------------------------------|
------------------------------------------------|------------------------------------------------|------------------------------------------------|--------14-14-12-12-14-14-10-10-14-14-9-9-14-14-|--12-12-----------------------------------------|------------------------------------------------|
------------------------------------------------|------------------------------------------------|------------------------------------------------|--------14-14-12-12-14-14-10-10-14-14-9-9-14-14-|--12-12-----------------------------------------|------------------------------------------------|
------------------------------------------------|------------------------------------------------|------------------------------------------------|--0-0-15-15-14-14-15-15-12-12-15-15-10-10-15-15-|------------------------------------------------|------------------------------------------------|
------------------------------------------------|------------------------------------------------|------------------------------------------------|--0-0-15-15-14-14-15-15-12-12-14-14-------14-14-|------------------------------------11-11-------|------------------------------------------------|
------------------------------------------------|------------------------------------------------|------------------------------------------------|--------14-14-12-12-14-14-10-10-14-14-9-9-14-14-|--12-12-----------------------------------------|------------------------------------------------|
------------------------------------------------|------------------------------------------------|------------------------------------------------|--------14-14-12-12-14-14-10-10-14-14-9-9-14-14-|--12-12-----------------------------------------|------------------------------------------------|
------------------------------------------------|------------------------------------------------|------------------------------------------------|--0-0-15-15-14-14-15-15-12-12-15-15-10-10-15-15-|------------------------------------------------|------------------------------------------------|
--------------------------------------------|----------------------------------|--------------------------------------------|----------------------------------|--------------------------------------------|----------------------------------|--12-12-14-14-10-10-12-12-9-9-10-10-9-9-6-6-|------9-9-7-7-9-9-5-5-9-9-4-4-9-9-|--------------------------------------------|--7-7-----------------------------|--------------------------------------------|----------------------------------|
------------------------------------|----------------------------------|------------------------------------|----------------------------------|------------------------------------|----------------------------------|------9-9-7-7-9-9-5-5-9-9-7-7-10-10-|------9-9-7-7-9-9-5-5-9-9-4-4-9-9-|--7-7-------------------------------|--7-7-----------------------------|------------------------------------|----------------------------------|
--------------------------------------|----------------------------------|--------------------------------------|----------------------------------|--------------------------------------|----------------------------------|------10-10-9-9-7-7-------------------|------9-9-7-7-9-9-5-5-9-9-4-4-9-9-|--6-6---------------10-10-9-9-7-7-6-6-|--7-7-----------------------------|--------------------------------------|----------------------------------|
------------------------------------|----------------------------------|------------------------------------|----------------------------------|------------------------------------|----------------------------------|------9-9-7-7-9-9-5-5-9-9-7-7-10-10-|------9-9-7-7-9-9-5-5-9-9-4-4-9-9-|--7-7-------------------------------|--7-7-----------------------------|------------------------------------|----------------------------------|
--------------------------------------|---|---|---|---|---|---|---|--------------------------------------|---|---|---|---|---|---|---|--------------------------------------|---|---|---|---|---|---|---|------10-10-9-9-7-7-------------------|---|---|---|---|---|---|---|--6-6---------------10-10-9-9-7-7-6-6-|---|---|---|---|---|---|---|--------------------------------------|---|---|---|---|---|---|---|
------------------------------|------------------------------|------------------------------|------------------------------|----------------8----8--8--8--|--9----9--9--9--9----9--9--9--|--9----9--9--9--8----8--8--8--|--9----9--9--9--9----9--9--9--|--9----9--9--9--6----6--6--6--|--7----7--7--7--7----7--7--7--|--7----7--7--7----------------|------------------------------|
------------------------------|------------------------------|------------------------------|------------------------------|------------------------------|--9----9--9--9--9----9--9--9--|--9----9--9--9--9----9--9--9--|--9----9--9--9--9----9--9--9--|--9----9--9--9--9----9--9--9--|--7----7--7--7--7----7--7--7--|--7----7--7--7--7----7--7--7--|------------------------------|
------------------------------|------------------------------|------------------------------|------------------------------|----------------8----8--8--8--|--9----9--9--9--9----9--9--9--|--9----9--9--9--8----8--8--8--|--9----9--9--9--9----9--9--9--|--9----9--9--9--6----6--6--6--|--7----7--7--7--7----7--7--7--|--7----7--7--7----------------|------------------------------|
------------------------------|------------------------------|------------------------------|------------------------------|------------------------------|--9----9--9--9--9----9--9--9--|--9----9--9--9--9----9--9--9--|--9----9--9--9--9----9--9--9--|--9----9--9--9--9----9--9--9--|--7----7--7--7--7----7--7--7--|--7----7--7--7--7----7--7--7--|------------------------------|
------------------------------|------------------------------|------------------------------|------------------------------|----------------8----8--8--8--|--9----9--9--9--9----9--9--9--|--9----9--9--9--8----8--8--8--|--9----9--9--9--9----9--9--9--|--9----9--9--9--6----6--6--6--|--7----7--7--7--7----7--7--7--|--7----7--7--7----------------|------------------------------|
------------------------------|------------------------------|------------------------------|------------------------------|------------------------------|--9----9--9--9--9----9--9--9--|--9----9--9--9--9----9--9--9--|--9----9--9--9--9----9--9--9--|--9----9--9--9--9----9--9--9--|--7----7--7--7--7----7--7--7--|--7----7--7--7--7----7--7--7--|------------------------------|
------------------------------|------------------------------|------------------------------|------------------------------|----------------8----8--8--8--|--9----9--9--9--9----9--9--9--|--9----9--9--9--8----8--8--8--|--9----9--9--9--9----9--9--9--|--9----9--9--9--6----6--6--6--|--7----7--7--7--7----7--7--7--|--7----7--7--7----------------|------------------------------|
------------------------------|------------------------------|------------------------------|------------------------------|------------------------------|--9----9--9--9--9----9--9--9--|--9----9--9--9--9----9--9--9--|--9----9--9--9--9----9--9--9--|--9----9--9--9--9----9--9--9--|--7----7--7--7--7----7--7--7--|--7----7--7--7--7----7--7--7--|------------------------------|
---------------------------|----------------------------|---------------------------|----------------------------|----------------8---8---8--|----------------------------|--9----9--9--9--8---8---8--|----------------------------|--9----9--9--9--6---6---6--|-------------------8--5-----|--7----7--7--7-------------|--0--0-0-0--0-0-0--------6--|
----------------------------|----------------------------|----------------------------|----------------------------|----------------------------|----------------------------|-------------------5--------|----------------------------|--7-------------------7--5--|--8----------------8--5-----|-----0-0-0--0-0-0-----------|-----0-0-0--0-0-0--------6--|
----------------------------|----------------------------|----------------------------|----------------------------|----------------------------|----------------------------|----------------------------|----------------------------|----------7------------8----|-------------------8--5-----|--5-5-5-5-5----6-6-6-6-6----|--0--0-0-0--0-0-0--------6--|
----------------------------|----------------------------|----------------------------|----------------------------|----------------------------|----------------------------|-------------------5--------|----------------------------|--7-------------------7--5--|--8----------------8--5-----|-----0-0-0--0-0-0-----------|-----0-0-0--0-0-0--------6--|
----------------------------|----------------------------|----------------------------|----------------------------|----------------------------|----------------------------|----------------------------|----------------------------|----------7------------6----|-------------------8--5-----|--5-5-5-5-5----4-4-4-4-4----|--0--0-0-0--0-0-0--------6--|
----------------------------|----------------------------|----------------------------|----------------------------|----------------------------|----------------------------|-------------------5--------|----------------------------|--7-------------------7--5--|--8----------------8--5-----|-----0-0-0--0-0-0-----------|-----0-0-0--0-0-0--------6--|
----------------------------|----------------------------|----------------------------|----------------------------|----------------------------|----------------------------|----------------------------|----------------------------|----------7------------8----|-------------------8--5-----|--5-5-5-5-5----6-6-6-6-6----|--0--0-0-0--0-0-0--------6--|
----------------------------|----------------------------|----------------------------|----------------------------|----------------------------|----------------------------|-------------------5--------|----------------------------|--7-------------------7--5--|--8----------------8--5-----|-----0-0-0--0-0-0-----------|-----0-0-0--0-0-0--------6--|
----------------------------|--------------------------------|----------------------------|--------------------------------|----------------------------|--------------------------------|----------------------------|--------------------------------|----------7------------6----|--7---------10-10-10--9-9-9--7--|--5-5-5-5-5----4-4-4-4-4----|-----0-0-0----------------------|
-----------------------------|--------------------------------|-----------------------------|--------------------------------|-----------------------------|--------------------------------|-----------------------------|--------------------------------|--6---------6-6-6--9-9-9--6--|--7---------10-10-10--9-9-9--7--|-----7-7-7-------------------|-----0-0-0----------------------|
----------------------------|--------------------------------|----------------------------|--------------------------------|----------------------------|--------------------------------|----------------------------|--------------------------------|--6---------6--9---------9--|--7---------10-10-10--9-9-9--7--|-----7-7-7--------7-7-7-----|-----0-0-0----------------------|
-----------------------------|--------------------------------|-----------------------------|--------------------------------|-----------------------------|--------------------------------|-----------------------------|--------------------------------|--6---------6-6-6--9-9-9--6--|--7---------10-10-10--9-9-9--7--|-----7-7-7-------------------|-----0-0-0----------------------|
----------------------------|--------------------------------|----------------------------|--------------------------------|----------------------------|--------------------------------|----------------------------|--------------------------------|--6---------6--9---------9--|--7---------10-10-10--9-9-9--7--|-----7-7-7--------7-7-7-----|-----0-0-0----------------------|
-----------------------------|--------------------------------|-----------------------------|--------------------------------|-----------------------------|--------------------------------|-----------------------------|--------------------------------|--6---------6-6-6--9-9-9--6--|--7---------10-10-10--9-9-9--7--|-----7-7-7-------------------|-----0-0-0----------------------|
----------------------------|--------------------------------|----------------------------|--------------------------------|----------------------------|--------------------------------|----------------------------|--------------------------------|--6---------6--9---------9--|--7---------10-10-10--9-9-9--7--|-----7-7-7--------7-7-7-----|-----0-0-0----------------------|
-----------------------------|--------------------------------|-----------------------------|--------------------------------|-----------------------------|--------------------------------|-----------------------------|--------------------------------|--6---------6-6-6--9-9-9--6--|--7---------10-10-10--9-9-9--7--|-----7-7-7-------------------|-----0-0-0----------------------|
----------------------------|----------------------|-------------------------|----------------------------|----------------------|-------------------------|----------------------------|----------------------|-------------------------|----------------------------|-------2---------5----|-------7----------10--9--|--6---------6--9---------9--|--2----2----5----5----|--7----7----10----10--9--|-----7-7-7--------7-7-7-----|--0---------3---------|--5---------8-----8---7--|
----------------------|----------------------|----------------------|----------------------|----------------------|----------------------|----------------------|----------------------|----------------------|-------2---------5----|-------7---------9----|-------2---------5----|--2----2----5----5----|--7----7----9----9----|--2----2----5----5----|--0---------3---------|--5---------7---------|--0---------3---------|
-------------------------|----------------------|----------------------|-------------------------|----------------------|----------------------|-------------------------|----------------------|----------------------|-------7----------10--9--|-------2---------5----|-------7---------9----|--7----7----10----10--9--|--2----2----5----5----|--7----7----9----9----|--5---------8-----8---7--|--0---------3---------|--5---------7---------|
----------------------|-------------------------|----------------------|----------------------|-------------------------|----------------------|----------------------|-------------------------|----------------------|-------2---------5----|-------7----------10--9--|-------2---------5----|--2----2----5----5----|--7----7----10----10--9--|--2----2----5----5----|--0---------3---------|--5---------8-----8---7--|--0---------3---------|
----------------------|----------------------|-------------------------|----------------------|----------------------|-------------------------|----------------------|----------------------|-------------------------|-------7---------9----|-------2---------5----|-------7----------10--9--|--7----7----9----9----|--2----2----5----5----|--7----7----10----10--9--|--5---------7---------|--0---------3---------|--5---------8-----8---7--|
----------------------|----------------------|----------------------|----------------------|----------------------|----------------------|----------------------|----------------------|----------------------|-------2---------5----|-------7---------9----|-------2---------5----|--2----2----5----5----|--7----7----9----9----|--2----2----5----5----|--0---------3---------|--5---------7---------|--0---------3---------|
-------------------------|----------------------|----------------------|-------------------------|----------------------|----------------------|-------------------------|----------------------|----------------------|-------7----------10--9--|-------2---------5----|-------7---------9----|--7----7----10----10--9--|--2----2----5----5----|--7----7----9----9----|--5---------8-----8---7--|--0---------3---------|--5---------7---------|
----------------------|-------------------------|----------------------|----------------------|-------------------------|----------------------|----------------------|-------------------------|----------------------|-------2---------5----|-------7----------10--9--|-------2---------5----|--2----2----5----5----|--7----7----10----10--9--|--2----2----5----5----|--0---------3---------|--5---------8-----8---7--|--0---------3---------|
----------------------|--------------------------------------------|----------------------|--------------------------------------------|----------------------|--------------------------------------------|-------7---------9----|------9-9-----10-10-------12-12-------13-13-|--7----7----9----9----|--7-7-----8-8-------10-10-------11-11-------|--5---------7---------|--------------------------------------------|
------------------------------------------------|--------------------||------12-12-------13-13-------15-15-------16-16-|--17~---------------||--9-9-------10-10-------12-12-------13-13-------|--------------------||------------------------------------------------|--------------------||------------------------------------------------|--------------------||------------------------------------------------|--------------------||
Tap to rate this tab
 
# A B C D E F G H I J K L M N O P Q R S T U V W X Y Z