Omarion - Ice Box tab

Omarion and Timbaland – Ice Box
Tabbed and arranged by: Alejandro Manzano of Boyce Avenue

www.myspace.com/boyceavenue

video of me playing/singing it:
http://www.youtube.com/watch?v=-h0FwTKgviU

Tuning: C  G  C  F  A  C (guitar 1 and 2)

x = mute
/ = slide
^ = hammer on or pull off

Guitar 1 (Rhythm):

Intro:-0---0---0---0---0-|-3---2---3---3---3-|-0---2---4---4---2-|-0---2---4---4---0-|-x---0---2---2---x-|-5---------------4-|
Verse:-0---0---0---0-|-3---2---3---3-|-0---2---4---4-|-0---2---4---4-|-x---0---2---2-|-5-------------|
Pre-Chorus:-0---0---0---0--0-0---0-0---0---0--|-3---2---3---3--x-x---x-x---x---x--|-0---2---4---4--4-4/6-6-6/7-7/9-9\-|-0---2---4---4--0-0---0-0---0---0--|-x---0---2---2--2-2/4-4-4/5-5/7-7\-|-5---------------------------------|
Chorus 1 and 2:-0----0----0----0----0--|-0----5----0----0----0--|-7----6----11---11---9\-|-0----7----11---11---7\-|-x----0----9----9----7\-|-5---------9----9----7\-|
Bridge:-0----0----0----0---0-|-0----5----0----3---2-|-7----6----0----4---2-|-0----0----2----4---2-|-x----x----2----2---0-|-5----4----2----------|
Chorus 3:-0---0---0---0--0-0---0-0---0---0--|-3---2---3---3--x-x---x-x---x---x--|-0---2---4---4--4-4/6-6-6/7-7/9-9\-|-0---2---4---4--0-0---0-0---0---0--|-x---0---2---2--2-2/4-4-4/5-5/7-7\-|-5---------------------------------|
-0----0----0----0---0---0-|-0----5----0----3---2---0-|-7----6----0----4---2---7-|-0----0----2----4---2---0-|-x----x----2----2---0---x-|-5----4----2------------5-|
Guitar 2 (Lead):
Intro:------12-----12-----12-----12-------------------------------|----------------------------------14-----14-----14-12-10-12-|-11-12--11-12--11-12--11-12--11-12--11-12--11-12------------|------------------------------------------------------------|------------------------------------------------------------|------------------------------------------------------------|
----------------------|------10-----------10-|----------------------|-11-12--------11-12---|----------------------|----------------------|
Verse: (slight palm mute)------12-----12-----12-----12-------------------------------|----------------------------------14-----14-----14-12-10-12-|-11-12--11-12--11-12--11-12--11-12--11-12--11-12------------|------------------------------------------------------------|------------------------------------------------------------|------------------------------------------------------------|
----------------------|------10-----------10-|----------------------|-11-12--------11-12---|----------------------|----------------------|
Pre-Chorus:------------------------|-12-----10-----8-7----7-|-11-----9------7------7-|-9------11-----9------9-|------------------------|------------------------|
Chorus 1 and 2:--------------------|-12----10----7----7-|--------------------|-9-----7-----4----4-|--------------------|--------------------|
Solo:--------------------------------------------------|--------------------------------------------------|---7^9-9/11-11-11-11\9-7-7^9--9-7-9-6-7-----6-----|-9--------------------------------------7^9---9-7-|--------------------------------------------------|--------------------------------------------------|
---------------------------------------------------------|----------------------------------7^8^7------------------|-----7\6----------------------7^9-------9-7^9/11\9-7^9-9-|-7^9-----7-7^9-9-----7----7^9----------------------------|-----------------7^9-------------------------------------|---------------------------------------------------------|
-----------------------------------------|-----------------------------------------|-----------11-12-12^14-14-14-14-12-11-11-|------12-14------------------------------|-12-14-----------------------------------|-----------------------------------------|
----------------------------------------------------|------------------------------------------10^12-12--|-9/11-12-12/14-14-14-14-12-11-9---7/9-9^11--------9-|----------------------------------------------------|----------------------------------------------------|----------------------------------------------------|
-------------------12-11-9------------------------------12-|-----10^12-12-10-10-------10-10-12-------------------10----|-9-11------------------------------11-9----9--9/11\9-------|-----------------------------------------12-12-------------|-----------------------------------------------------------|-----------------------------------------------------------|
Chorus 3:-------------0---0--0-0---0-0---0---0--|-------------0---0--x-x---x-x---x---x--|-9-\-6-------4---4--4-4/6-6-6/7-7/9-9\-|-------------4---4--0-0---0-0---0---0--|----------\--2---2--2-2/4-4-4/5-5/7-7\-|----------\----------------------------|
-0----0----0----0---0---0-|-0----5----0----0---2---0-|-7----6----0----4---2---0-|-0----0----2----4---2---0-|-x----x----2----2---0---x-|-5----4----2------------5-|
Tap to rate this tab
 
# A B C D E F G H I J K L M N O P Q R S T U V W X Y Z