On Broken Wings - Suffer tab version 2

Hey guys! :) I was looking for some OBW-Tabs and only found SIX! What a pity!

So here's the complete tab to one of my favorite songs of OBW, 'Suffer'! I'm pretty sure 
it fits to the song, there also is an intro-tab uploaded to its introduction, it's 
. I also use this tab in mine, because I think it's right :) That's why I'm linking it here ;)

Okay, let's go! Tuning: Drop-B (Tabbed only ONE guitar)

Introduction (watch the link on top)

Intro|--------------------------------||--------------------------------||--------------------------------||----------1h4p1p0---------------||-0000-0-0--------1-0-3-6-3-2-5-2||-0000-0-0------------3s6s3-2s5s2|
|--------------------------------||--------------------------------||--------------------------------||----------1h4p1p0---------------||-0000-0-0--------1-0-3-6-3-2-5-2||-0000-0-0------------3s6s3-2s5s2|
|--------------------------------||--------------------------------||--------------------------------||----------1h4p1p0---------------||-0000-0-0--------1-0-3-6-3-2-5-2||-0000-0-0------------3s6s3-2s5s2|
|----------------------------------||----------------------------------||----------------------------------||----------1h4p1p0-----------------||-0000-0-0--------1-0-3-6-3-2--b3~-||-0000-0-0------------3s6s3-2------|
|--------------------------------||--------------------------------||--------------------------------||----------1h4p1p0---------------||-0000-0-0--------1-0-3-6-3-2-5-2||-0000-0-0------------3s6s3-2s5s2|
|----------------------------------||----------------------------------||----------------------------------||----------1h4p1p0-----------------||-0000-0-0--------1-0-3-6-3-2--b3~-||-0000-0-0------------3s6s3-2------|
|--------------------------------||--------------------------------||--------------------------------||----------1h4p1p0---------------||-0000-0-0--------1-0-3-6-3-2-5-2||-0000-0-0------------3s6s3-2s5s2|
|----------------------------------||----------------------------------||----------------------------------||----------1h4p1p0-----------------||-0000-0-0--------1-0-3-6-3-2--b3~-||-0000-0-0------------3s6s3-2------|
|-------------------------------------------------------------||-------------------------------------------------------------||-------------------------------------------------------------||---------------------1h4p1p0---------------------------------||-0000---000--3s2s3s2--------1p0-0000~-000-0s3-6-3--0s2-5-2---||-0000---000--3s2s3s2------------0000~-000-0s3s6s3--0s2s5s2---|
|--------------------------------------------------------------||--------------------------------------------------------------||--------------------------------------------------------------||-0~--------------------------------0~----------77-7-7-77777-7-||-0~--------------------------------0~----------55-5-5-55555-5-||-0~------------(slide down plek)---0~-------------------------|
|----------------------------------------------||----------------------------------------------||----------------------------------------------||--------------------------1111111s1010101010--| <(eleven & ten)|-55555s44444s55555s44444----------------------||----------------------------------------------|
x3|---------------------------------------------------||---------------------------------------------------||---------------------------------------------------||-----77-77-7--8~-7~--------------------------------||-----55-55-5---------------------------------------||--0---------0-------11144441111000-111444111000----|
|-----------------------------------------------||-----------------------------------------------||-----------------------------------------------||-----77-77-7--8~-7~----------------------------||-----55-55-5-----------------------4~-1~-4-1-3-||--0---------0-------11144441111000-4~-1~-4s1s3-|
|-----------------------|--------------------------||-----------------------|--------------------------||-----------------------|--------------------------||-----------------------|--------------------------||-0000-0--0000-0--00000-|-0000-0--0000-4~-1~-4s1s3-||-0000-0--0000-0--00000-|-0000-0--0000-4~-1~-4s1s3-|
|-----------------------|--------------------------------------------------||-----------------------|--------------------------------------------------||-----------------------|--------------------------------------------------||-----------------------|--------------------------------------------------||-0000-0--0000-0--00000-|-0000-0--0000-4~-------------------------1~-4s1s3-||-0000-0--0000-0--00000-|-0000-0--0000-4~(slide down & slow down)-1~-4s1s3-|
2x|-----------------------|------------------------||-----------------------|------------------------||-----------------------|------------------------||-----------------------|------------------------||-0000-0--0000-0--00000-|-0000-0--0000-4s1s4s1s3-||-0000-0--0000-0--00000-|-0000-0--0000-4s1s4s1s3-|
Well, that's it! :) Just stick to the song for the whole timing :P I hope some of you this and have fun playin this song ^^ Any ratings and/or comments will be greatly :)
Tap to rate this tab
 
# A B C D E F G H I J K L M N O P Q R S T U V W X Y Z