One Direction - Truly Madly Deeply tab version 2

Hi :) x
This is my first tab. I made it by ear, not sure if it's right. So please be nice xx
I really love One Direction and this song. Enjoy! Xxx

Intro:

---0-0----0-0----0-0------0-0--------------|---1-1----1-1----1-1------1-1--------------|-------------------------------------------|-------------------------------------------|-3------2------0-------2-------------------|-------------------------------------------|
Verse:
---0-0----0-0----0-0------0-0--------------|---1-1----1-1----1-1------1-1--------------|-------------------------------------------|-------------------------------------------| 2x-3------2------0-------2-------------------|-------------------------------------------|
---1-1-----1-1------1-1-----1-1------------|---3-3-----3-3------3-3-----3-3------------|-------------------------------------------| 2x-0-----------------------------------------|---------3-------2-------3-----------------|-------------------------------------------|
---0-0----0-0----0-0------0-0--------------|---1-1----1-1----1-1------1-1--------------|-------------------------------------------|-------------------------------------------| 2x-3------2------0-------2-------------------|-------------------------------------------|
---1-1-----1-1------1-1-----1-1------------|---3-3-----3-3------3-3-----3-3------------|-------------------------------------------| 2x-0-----------------------------------------|---------3-------2-------3-----------------|-------------------------------------------|
Chorus:
---0-0----0-0----0-0------0-0--------------|---1-1----1-1----1-1------1-1--------------|-------------------------------------------|-------------------------------------------| 4x-3------2------0-------2-------------------|-------------------------------------------|
---0-0----0-0----0-0------0-0--------------|---1-1----1-1----1-1------1-1--------------|-------------------------------------------|-------------------------------------------| 2x-3------2------0-------3-------------------|-------------------------------------------|
Verse 2:
-----0-------0-------0--------0--------------|-----1-------1-------1--------1--------------|---0---0---0---0---0---0----0---0------------|---------------------------------------------| 2x-3-------2-------0--------2------------------|---------------------------------------------|
-----1-------1--------1--------1-----------|-----3-------3--------3--------3-----------|---0---0---0---0----0---0----0---0---------| 2x-0-----------------------------------------|---------3-------2-------3-----------------|-------------------------------------------|
-----0-------0-------0--------0--------------|-----1-------1-------1--------1--------------|---0---0---0---0---0---0----0---0------------|---------------------------------------------| 2x-3-------2-------0--------2------------------|---------------------------------------------|
-----1-------1--------1--------1-----------|-----3-------3--------3--------3-----------|---0---0---0---0----0---0----0---0---------| 2x-0-----------------------------------------|---------3-------2-------3-----------------|-------------------------------------------|
Chorus:
-----0------0------0-------0---------------|-----1------1------1-------1---------------|---0---0---0--0--0---0---0---0-------------|-------------------------------------------| 4x-3------2------0-------2-------------------|-------------------------------------------|
----0------0------0--------0---------------|----1------1------1--------1---------------|---0--0---0--0---0--0----0---0-------------|-------------------------------------------| 2x-3------2------0-------3-------------------|-------------------------------------------|
Bridge:
-----0------0-------0------0-------0------0--------0-------1-------|-----1------1-------1------1-------1------1--------1-------0-------|---0---0--0---0---0---0---0--0---0---0---0--0----0---0----0--0-----|-------------------------------------------------------------------|-3-------3------2-------2-------3------3---------------------------|-----------------------------------------------3--------3--------1-|
Tap to rate this tab
 
# A B C D E F G H I J K L M N O P Q R S T U V W X Y Z