One Dollar Short - Unsung Hero tab version 2

Unsung Hero - One Dollar Short
tabber - shonofear


Intro Gtr 1-|---------------------------------------------------|-|---------------------------------------------------|-|-9-----9-----6------------9-----9-----6------------|-|-7-12--7-12--7------------7-12--7-12--7------------|-|-9-----5-----7-12--7-12---9-----5-----7-12--777777-|-|-------------5-----4------------------5-----444444-|
Intro 2 Gtr 1-|--------------------0-------------|--------------------0------------|-|---------------------0------------|---------------------0-----------|-|-------7--------------------------|-------7-------------------------|-|-4-----7-12--777777----7777-------|-4-----7-12--777777----7777------|-|-4-12--5-----777777----7777--7-12-|-4-12--5-----777777----7777--7-r-|-|-2-----------555555----5555--4----|-2-----------555555----5555--4---|
Gtr 2-|-----------------------|-------------------------------------------|-|-----------------------|-------------------------------------------|-|-------7---------------|-9--11--14----13-14----19---18---16----18--|-|-4-----7-12--7---------|----------12-------12----6----6----r-----r-|-|-4-12--5-----7-12--7-8-|-7---9--12----11-12----17---16---14---/16--|-|-2-----------5-----4---|-------------------------------------------|
Verse Gtr 1 -|----------------------------------------------------|-|----------------------------------------------------|-|-------------------------7-777777-7-6h7p6-----------|-|---4-444444-4-2-222222-2-7-777777-7-------7---------|-|---4-444444-4-2-222222-2-5-555555-5---------4/5\4---|-|-\-2-222222-2-0-000000-0---******-----------------5-|
****** ****** Gtr 2-|-----------------------------------------------|-|-----------------------------------------------|-|-------------------------7-777777-7-7-777777-7-|-|---4-444444-4-2-222222-2-7-777777-7-7-777777-7-|-|---4-444444-4-2-222222-2-5-555555-5-5-555555-5-|-|-\-2-222222-2-0-000000-0---******-*---******---|
****** ****** Gtr 1-|--------------------------------------------------|-|--------------------------------------------------|-|------------4-444444-4-7-777777-7-6h7p6-----------|-|-4-444444-4------------7-777777-7-------7---------|-|-4-444444-4-2-222222-2-5-555555-5---------4/5\4---|-|-2-222222-2---******-----******-----------------5-|
****** Gtr 2-|---------------------------------------------|-|---------------------------------------------|-|------------4-444444-4-7-777777-7-7-777777-7-|-|-4-444444-4------------7-777777-7-7-777777-7-|-|-4-444444-4-2-222222-2-5-555555-5-5-555555-5-|-|-2-222222-2---******-----******-*---******---| ******
Pre Chorus Gtr 1-|--------------------------------------------------------------------|-|----------------------------------------------------------7h9h10--9-|-|-------------------------------7-7-7-7-7-7-7--------6h7h9--------9--|-|-4-4-4-4-4-4-4--2-2-2-2-2-2-2--7-7-7-7-7-7-7-7h9h11-----------------|-|-4-4-4-4-4-4-4--2-2-2-2-2-2-2--5-5-5-5-5-5-5------------------------|-|-2-2-2-2-2-2-2--0-0-0-0-0-0-0----*---*---*--------------------------| * * * * * *
Gtr 2-|------------------------------------------------------------|-|------------------------------------------------------------|-|-------------------------------7-7-7-7-7-7-7--7-7-7-7-7-7-7-|-|-4-4-4-4-4-4-4--2-2-2-2-2-2-2--7-7-7-7-7-7-7--7-7-7-7-7-7-7-|-|-4-4-4-4-4-4-4--2-2-2-2-2-2-2--5-5-5-5-5-5-5--5-5-5-5-5-5-5-|-|-2-2-2-2-2-2-2--0-0-0-0-0-0-0----*---*---*------*---*---*---| * * * * * *
Gtr 1-|--------------------------------------------------|-|--------------------------------------------------|-|----------------4-4-4-4-4-4-4--7----999999--13----|-|-4-4-4-4-4-4-4-----------------7-6------------r---|-|-4-4-4-4-4-4-4--2-2-2-2-2-2-2--5----777777-/11----|-|-2-2-2-2-2-2-2----*---*---*---------------------\-| * * *
Gtr 2-|---------------------------------------------------|-|---------------------------------------------------|-|----------------4-4-4-4-4-4-4--7----999999--9------|-|-4-4-4-4-4-4-4-----------------7-6--999999--9-r----|-|-4-4-4-4-4-4-4--2-2-2-2-2-2-2--5----777777--7------|-|-2-2-2-2-2-2-2----*---*---*----------------------\-| * * *
Chorus Gtr 1-|-------------------------------------------|-|-------------------------------------------|-|-------9-----11-----6-----7-----------9----|-|-7-----9-12--11-12--6-12--7-12--7-----9-24-|-|-7-12--7------9-----4-----5-----7-12--7----|-|-5------------------------------5----------|
Gtr 2-|-------------------------------------------|-|-------------------------------------------|-|-------9-----11-----6-----7-----14----9----|-|-7-----9-12--11-12--6-12--7-12----12--9-24-|-|-7-12--7------9-----4-----5-----12----7----|-|-5-----------------------------------------|
Solo Gtr 1-|-----------------------------------------------------------------|-|-5/7-5-----------------------------------------------------------|-|-------7-6-6/7-------------------------------------------6-7-----|-|---------------7--7--------------------------2-------6-7-----7-6-|-|---------------------2/4-2-0-2-2/4-2--2--2h4---4-4/7-------------|-|-----------------------------------------------------------------|
-|-------------------------12-r---19-r-|-|---^-------9h10p9-9h10p9-------------|-|-6h7p6-6/----------------------------|-|-------------------------------------|-|-------------------------------------|-|-------------------------------------|
Gtr 2-|------------------------|-----------------------|-|------------------------|-----------------------|-|-------7----------------|-------7---------------|-|-4-----7-12--7----------|-4-----7-12--7---------|-|-4-12--5-----7-12--7-12-|-4-12--5-----7-12--7-r-|-|-2-----------5-----4----|-2-----------5-----4---|
Verse Pre Chorus
Chorus 2 Gtr 1-|-------------------------------------------|-|-------------------------------------------|-|-------9-----11-----6-----7-----------9----|-|-7-----9-12--11-12--6-12--7-12--7-----9-24-|-|-7-12--7------9-----4-----5-----7-24--7----|-|-5------------------------------5----------|
-|---------------------------------------------------------|-|---------------------------------------------------------|-|-------9-----11-----6-----7-----------9-----999-101010---|-|-7-----9-12--11-12--6-12--7-12--7-----9-12--999-101010---|-|-7-12--7------9-----4-----5-----7-12--7-----777--8-8-8-\-|-|-5------------------------------5-----------***--*-*-----|
Gtr 2-|------------------------------------------------------|-|------------------------------------------------------|-|------------------------------------------------------|-|-7----14-12-11----14-12-11----7-/--9-/--11----7-6-7-9-|-|------------------------------------------------------|-|------------------------------------------------------|
-|----------------------------------------------------------------------------------------|-|----------------------------------------------------------------------------------------|-|-----------14-13--13-14-16-14-13-14-----------------------------------------999-101010--|-|-7-9-11-12--------------------------11--11-14-12-11-12-11-12-11-9-11--7--9--999-101010--|-|----------------------------------------------------------------------------777--8-8-8-\|-|----------------------------------------------------------------------------***--*-*----|
Intro Gtr 1-|----------------------------------------------------------------------------|-|----------------------------------------------------------------------------|-|-9999-999-9-99-9--9999-999-9-99-9--6666-666-6-67-6--------------------------|-|-7777-777-7-77-7--7777-777-7-77-7--7777-777-7-xx-7-----------------------5)-|-|-9999-999-9-99-9--5555-555-5-55-5--7777-777-7-77-7--7777-777-7-77------5----|-|-----------------------------------5555-555-5-55-5--4444-444-4-44-(444------|
Gtr 2-|---------------------------------------------------------------------------|-|---------------------------------------------------------------------------|-|---------------------------------------------------------------------------|-|-------------------------------------------------------------------777-7-2-|-|-------------------------------------------------------------------777-7-2-|-|-------------------------------------------------------------------555-4-0-|
*** * Gtr 1-|----------------------------------------------------------------------------|-|----------------------------------------------------------------------------|-|------------------7777-777-7-77-7-------------------------------------------|-|-4444-444-4-44-4--7777-777-7-77-7--7777-777-7-77-7-----------------------9)-|-|-4444-444-4-44-4--5555-555-5-55-5--7777-777-7-77-7--7777-777-7-77------5----|-|-2222-222-2-22-2-------------------5555-555-5-55-5--4444-444-4-44-(444------|
Gtr 2-|--------------------x2-|--------------------------x2-|-|-----------------------|-----------------------------|-|-9999-99-1414-13-14-13-|-18181818-1818-1919-18-19-18-|-|-----------------------|-----------------------------|-|-7777-77-1212-11-12-11-|-16161616-1616-1717-16-17-16-|-|-----------------------|-----------------------------|
Gtr 1-|---------------------------------------------------------------------|-|---------------------------------------------------------------------|-|------------------7777-777-7-77-7------------------------------------|-|-4444-444-4-44-4--7777-777-7-77-7--7777-777-7-77-7-----------222-777-|-|-4444-444-4-44-4--5555-555-5-55-5--7777-777-7-77-7--7777-77--222-777-|-|-2222-222-2-22-2-------------------5555-555-5-55-5--4444-44--000-444-|
*** *** Gtr 2-|--------------------------x2-|-----------------------------------------------------|-|-----------------------------|-----------------------------------------------------|-|-14141414-1414-1616-14-16-14-|-18181818-1818-1919-18-19-18--18181818-1818----------|-|-----------------------------|---------------------------------------------222-777-|-|-12121212-1212-1414-12-14-12-|-16161616-1616-1717-16-17-16--16161616-1616--222-777-|-|-----------------------------|---------------------------------------------000-444-| *** ***
Chorus 3 Gtr 1-|-------------------------------------------------|-|-------------------------------------------------|-|------9----11----6----7---------9----9-9-9-9-9-9-|-|-7----9-8--11-8--6-8--7-8--7----9-8--9-9-9-9-9-9-|-|-7-8--7-----9----4----5----7-8--7----7-7-7-7-7-7-|-|-5-------------------------5---------------------|
Gtr 2-|------------------------------------------------------------|-|------------------------------------------------------------|-|-14---13---18-----14----13131313-14141414-16-16-16-16-16-16-|-|---8----8----16-----16--------------------------------------|-|-12---11---16-----12----11111111-12121212-14-14-14-14-14-14-|-|------------------------------------------------------------|
Gtr 1-|----------------------------------------------------|-|----------------------------------------------------|-|------9----11----6----7---------9----9-9-9-10-10-10-|-|-7----9-8--11-8--6-8--7-8--7----9-8--9-9-9-10-10-10-|-|-7-8--7-----9----4----5----7-8--7----7-7-7--8--8--8-|-|-5-------------------------5------------------------|
Gtr 2-|---------------------------------------------------------|-|---------------------------------------------------------|-|-14---13---18----14----13131313-14141414--9-9-9-10-10-10-|-|---8----8----16----16---------------------9-9-9-10-10-10-|-|-12---11---16----12----11111111-12121212--7-7-7--8--8--8-|-|---------------------------------------------------------|
Outro Gtr 1-|----------------------------------------------x2-|---|-|-------------------------------------------------|---|-|------7--------------------7---------------------|---|-|-4----7-6--7----------4----7-6--7----------------|---|-|-4-6--5----7-6--7-6---4-6--5----7-6--7-7-7-7-7-7-|---|-|-2---------5----4-----2---------5----4-4-4-4-4-4-|-\-|
Gtr 2 -|-------------------------------------|-|-14----12----14----15-15-15-15-15-15-|-|---58----6-----56--------------------|-|-11-----9----11----12-12-12-12-12-12-|-|-------------------------------------|-|-------------------------------------|
Tap to rate this tab
 
# A B C D E F G H I J K L M N O P Q R S T U V W X Y Z