One Dollar Short - Colour Red tab version 2

 Colour Red - One Dollar Short
tabber - shonofear

Intro Gtr 1-|-----------------------|---------------------------------------|-|-----------------------|---------------------------------------|-|-1111111111-1111111111-|-11-9-999--9-7-777--6-7-777--7-6-66----|-|-----------------------|-------------------------------------7-|-|--9-9-9-9-9--9-9-9-9-9-|--9\7-777--7\5-555--4/5-555--5\4-44----|-|-----------------------|-------------------------------------5-|
Gtr 2-|--------------------------|--------------------------|-|--------------------------|--------------------------|-|--------------------------|-77777-77777--------------|-|-99999-99999--99999-99999-|-77777-77777--77777-77777-|-|-99999-99999--99999-99999-|-55555-55555--77777-77777-|-|-77777-77777--77777-77777-|--------------55555-55555-|
Gtr 1-|------------------------------x2-|-----------------------------------------|-|---------------------------------|-----------------------------------------|-|-9-11-111111--9-11-111111--------|-11-9-999--9-7-777--------6-7-77-7-6-----|-|---------------------------xx-xx-|-------------------xx-xx-------------7---|-|-7/-9--9-9-9--7/-9--9-9-9--xx-xx-|--9\7-777--7\5-555-xx-xx--4/5-55-5\4---r-|-|---------------------------xx-xx-|-------------------xx-xx-------------5---|
Gtr 2-|--------------------------|----------------------------|-|--------------------------|----------------------------|-|--------------------------|-77777-77777----------------|-|-99999-99999--99999-99999-|-77777-77777--7777-7-7------|-|-99999-99999--99999-99999-|-55555-55555--7777-7-7-r----|-|-77777-77777--77777-77777-|--------------5555-5-5---x\-|
Intro 2 Gtr 1-|-------------------------------x2-|-----------------------------12^-|-|----------------------------------|---------------------------------|-|-9h11-11-----121212-111111-9h11p9-|-9/11-9-77-6vr--6-7-7/11---------|-|---------999----------------------|--------------------------7^-----|-|----------------------------------|---------------------------------|-|----------------------------------|---------------------------------|
Gtr 2-|----------------------------|------------|-|----------------------------|------------|-|----------------------------|------------|-|-9-----121212--9-----121212-|-7-----5----|-|-9-12--121212--9-12--121212-|-7-16--5-16-|-|-7-----101010--7-----101010-|-5-----3----|
Gtr 1-|-------------------------------x2-|------------------------------|-|----------------------------------|------------------------------|-|-9h11-11-----121212-111111-9h11p9-|-9/11-9-77-6vr----------------|-|---------999----------------------|------------------------------|-|----------------------------------|----------------4-5-5/9-7-5-r-|-|----------------------------------|------------------------------|
Gtr 2-|------------------------------------------|--------------------------------------|-|-15------15------15------15------14-15-14-|-/15-14-1212-10-r--10-12-14-12-10-----|-|----1414----1414----1414----1414----------|--------------------------------------|-|------------------------------------------|--------------------------------------|-|------------------------------------------|--------------------------------------|-|------------------------------------------|-----------------------------------x\-|
Verse 1 Gtr 1-|-----------------------------x2-|-|--------------------------------|-|-9h11-1111-xx--9h11-1111-xxxxxx-|-|--------------------------------|-|--------------------------------|-|--------------------------------|
Gtr 1-|------------------------------------------|-|-------------------------10---------------|-|-9h11-11111111-9h11-1111----11-9-11b12r11-|-|------------------------------------------|-|------------------------------------------|-|------------------------------------------|
-|-------------------------------------------|-|-------------------------------------------|-|-9h11-11111111-9h11-11111111-9-11-11b12r11-|-|-------------------------------------------|-|-------------------------------------------|-|-------------------------------------------|
Gtr 2-|-----------------------|------------|-|-----------------------|------------|-|-----------------------|-7----------|-|-----------99999-99999-|-7-12--7----|-|-----------99999-99999-|-5-----7-12-|-|-----------77777-77777-|-------5----|
Gtr 1-|-----------------------------x2-|-|--------------------------------|-|-9h11-1111-xx--9h11-1111-xxxxxx-|-|--------------------------------|-|--------------------------------|-|--------------------------------|
-|-------------------------------------------|-|-------------------------------------------|-|-9h11-11111111-9h11-11111111-9-11-11b12r11-|-|-------------------------------------------|-|-------------------------------------------|-|-------------------------------------------|
-|----------------------------------|-|-----------------------------10vr-|-|-9h11-11111111-9h11-11111111------|-|----------------------------------|-|----------------------------------|-|----------------------------------|
Gtr 2-|--------------------------|--------------|-|--------------------------|--------------|-|--------------------------|-7------------|-|-99999-99999--99999-99999-|-7-12--7------|-|-99999-99999--99999-99999-|-5-----7-6----|-|-77777-77777--77777-77777-|-------5---x\-|
Chorus Gtr 1-|-------------------------------------------|-|-------------------------------------------|-|-11----14-11-7----19-18--14-77-11-14-6-7---|-|---12----------6-------------------------6-|-|--9----12--9-5---/17-16v-12-55-/9-12-4-5---|-|-------------------------------------------|
Gtr 2-|---------------------------------|-|---------------------------------|-|-7--------------4-----6----------|-|-7-12--2-4-5----4-11--6-7----5---|-|-5-----2-4-5-6--2-----4-7-6--5-6-|-|-------0-2-3------------5----3---|
Gtr 1-|-------------------------------------------|-|-------------------------------------------|-|-11----14-11-7----19-18--14-77-11-14-6-7---|-|---12----------6-------------------------r-|-|--9----12--9-5---/17-16v-12-55-/9-12-4-5---|-|-------------------------------------------|
Gtr 2-|---------------------------------|-|---------------------------------|-|-7--------------4-----6----------|-|-7-12--2-4-5----4-11--6-7----5---|-|-5-----2-4-5-6--2-----4-7-6--5-r-|-|-------0-2-3------------5----3---|
Pre Verse Gtr 1-|------------------------------x3-|-|---------------------------------|-|-/9h11-1111-xx--9h11-1111-xxxxxx-|-|-/-------------------------------|-|-/-------------------------------|-|---------------------------------|
Verse 2 Gtr 1-|-----------------------------x2-|-|--------------------------------|-|-9h11-1111-xx--9h11-1111-xxxxxx-|-|--------------------------------|-|--------------------------------|-|--------------------------------|
Gtr 1-|-------------------------------------------|-|-------------------------------------------|-|-9h11-11111111-9h11-11111111-9-11-11b12r11-|-|-------------------------------------------|-|-------------------------------------------|-|-------------------------------------------|
-|-----------------------------------------|-|------------------------------------10---|-|-9h11-11111111-9h11-11111111-9h11p9----9-|-|-----------------------------------------|-|-----------------------------------------|-|-----------------------------------------|
Gtr 2-|----------------------|------------|-|----------------------|------------|-|----------------------|-7----------|-|----------------------|-7-12--7----|-|-9999-9999--9999-9999-|-5-----7-12-|-|-7777-7777--7777-7777-|-------5----| **** **** **** ****
Gtr 1-|-----------------------------x2-|-|--------------------------------|-|-9h11-1111-xx--9h11-1111-xxxxxx-|-|--------------------------------|-|--------------------------------|-|--------------------------------|
-|--------------------------------------------------------|-|-----------------------------------10------------10-r-\-|-|-9h11-11111111-9h11-11111111-9h11v----999-111111------\-|-|------------------------------------------------------\-|-|--------------------------------------------------------|-|--------------------------------------------------------|
Gtr 2-|--------------------------|------------|-|--------------------------|------------|-|--------------------------|-7----------|-|-99999-99999--99999-99999-|-7-12--7----|-|-99999-99999--99999-99999-|-5-----7-12-|-|-77777-77777--77777-77777-|-------5----|
Pre Chorus Gtr 1-|-----12----------------10---------|-------12-----------12-r-|-|-/10----10----------10-----10-r---|----10----10-----10------|-|-/----------11-r--9-------------9-|-11-----------11---------|-|----------------------------------|-------------------------|-|----------------------------------|-------------------------|-|----------------------------------|-------------------------|
Gtr 2-|------------|----------------|-|------------|----------------|-|------------|----------------|-|-4-----5----|-4-----5----7---|-|-4-12--5-12-|-4-12--5-6--7-6-|-|-2-----3----|-2-----3----5---|Chorus
Break Gtr 1-|----------------------------------------------------------------------------|-|-----10----12-10---10----10----12-10---10----10----12-10---10----10----12-r-|-|-/11----11------------11----11------------11----11------------11----11------|-|----------------------------------------------------------------------------|-|----------------------------------------------------------------------------|-|----------------------------------------------------------------------------|
Gtr 2-|----------------|-|----------------|-|----------------|-|----------55555-|-|-55555555-55555-|-|-33333333-33333-| ********
Bridge 1 Gtr 1-|----------------|-------------------|-------------12-10-|-|----10----12-10-|-10----10----12-10-|-10----10----------|-|-11----11-------|----11----11-------|----11----11-------|-|----------------|-------------------|-------------------|-|----------------|-------------------|-------------------|-|----------------|----------------x6-|-------------------|
Gtr 2-|-------------x2-|-|----------------|-|-4----7---------|-|-4-8--7-8--5----|-|-2----5----5-16-|-|-----------3----|
Bridge 2 Gtr 1-|-------121212-101010101010-1010101010101010---------x2-|-|-------101010-101010101010--8-8-8-8-8-8-8-8------------|-|-11-8----------------------------------------77--7--77-|-|--9------------------------------------------55--5--55-|-|-------------------------------------------------------|-|-------------------------------------------------------|
Gtr 2-|------x7-|-----------|-|---------|-----------|-|-7-6---6-|-7-6-6-6---|-|-*-*-7-*-|-*---*-*-7-|-|-----*---|---------*-|-|---------|-----------|
Bridge 3 Gtr 1-|---------|-----------|-|---------|-----------|-|-7-6---6-|-7-6-6-6\2-|-|-*-*-7-*-|-*-*-*-----|-|-----*---|-----------|-|---------|-----------|
Gtr 2-|------x7-|-----------|-|---------|-----------|-|---------|-----------|-|---------|-----------|-|-5-4---4-|-5-4-4-4---|-|-*-*-5-*-|-*-*-*---5-|
* Gtr 1-|------x2-|---------|------x3-|-----------|-|---------|---------|---------|-----------|-|-7-6---6-|-9-6---6-|-7-6---6-|-7-6-6-6---|-|-*-*-7-*-|-*-*-7-*-|-*-*-7-*-|-*-*-*-*-7-|-|-----*---|-----*---|-----*---|-----------|-|---------|---------|---------|-----------|
Gtr 2-|------x2-|------x2-|------x2-|-------------|-|---------|---------|---------|-------------|-|---------|---------|-7-6---6-|-7-6-6-6-----|-|---------|-5-4---4-|-*-*-7-*-|-*-*-*-*-7-r-|-|-5-4---4-|-*-*-5-*-|-----*---|-------------|-|-*-*-5-*-|-----*---|---------|-------------|
*Outro Gtr 1-|--------------x2-|--------------------------|-|-----------------|--------------------------|-|-6---6-7-9-7-6---|-6h7/9-9/11\9\7--6-7-\2-r-|-|-*-7-*-*-*-*-*-7-|--------------------------|-|---*-----------*-|--------------------------|-|-----------------|--------------------------|
Gtr 2-|---------------------x3-|-|------------------------|-|------------------------|-|-9----7----5----55-5-55-|-|-9-8--7-8--5-8--55-5-55-|-|-7----5----3----33-3-33-|
Gtr 1-|-----------------------12---10-\9b10r9b10r9----------------|-|----------------10v-------------------------10-------------|-|-6---6-7-9/11\9------9----9--------------------9vr--6-\2-r-|-|---7-*-*-------------*----*--------------------------------|-|---*-------------------------------------------------------|-|-----------------------------------------------------------|
-|---------7-9-10-9b10r---------------12---10---9-------------|-|-----7-x--------------10/12-10-r-\----------------10/12-r-\-|-|-4-x-*--------------------------\-----9----9---9------------|-|-*------------------------------------*----*---*------------|-|------------------------------------------------------------|-|------------------------------------------------------------|
Tap to rate this tab
 
# A B C D E F G H I J K L M N O P Q R S T U V W X Y Z