Opeth - Throat Of Winter tab

This is a close approximation to what Mikael plays till the 4th minute

This song uses standard tuning
First Chords: (These are played on a 12 string so they may sound different):

||---0----0--0----0--|--0--0--0--0--0------||||---0----0--0----0--|--0--0--0--0--0------||||---1----1--1----1--|--1--3--3--3--3----*-||||---2----2--2----2--|--2--2--2--2--2----*-||||---2----2--2----2--|--2--2--2--2--2------||||---0----0--0----0--|--0--0--0--0--0------||
The devil spoke and called you to his side ...
||---0-0----0--0--|--3--3----2--2------||||---2-2----1--1--|--3--3----3--3------||||---2-2----0--0--|--0--0----2--2----*-||||---2-2----2--2--|--0--0----0--0----*-||||---0-0----3--3--|--2--2----*--*------||||---0-0----0--0--|--3--3----*--*------||
The lead guitar plays:
||--------------------------------------------------||||-15b17------15b13--12-13-12----------/9------/5---||||--------------------------------------------------||||--------------------------------------------------||||--------------------------------------------------||||--------------------------------------------------||
On THROAT OF WINTER!!:
||---0---||||---0---||||---1---||||---2---||||---2---||||---0---||
The the bridge goes somewhat like this:
||-5-----10---10---10---10-------|-5-----9----9----9-----9-------|||-0-0-0---0----0----0----0--0---|-0-0-0---0----0----0----0--0---|||-7--7------7----7----7----7----|-7--7------7----7----7----7----|||-7-----------------------------|-7-----------------------------|||-------------------------------|-------------------------------|||-------------------------------|-------------------------------|
||-5------5----5------------0----|-----5-------7-------8------9--------9-----|||-0-0-0---0-----0---7-7-7-7-7---|---0---0----0------0-------0--0----0---0---|||-7--7------6----6---6-6-6---6--|-5--------8-----11------10------10---------|||-7-----------------------------|-------------------------------------------|||-------------------------------|-------------------------------------------|||-------------------------------|-------------------------------------------|
Afterwards:
------------------|------------------|------------------|------------------|------------------|------------------|--8----7----12----|--11----5----5----|------------------|------------------|--6----5----10----|---9----3----3----|
------------------|------------------|------------------|------------------|------------------|------------------|--8----7----12----|--11----5----5----|--4----3-----8----|---7----1----1----|--6----5----10----|---9----3----3----|
This part is played with strummed picking
------------10----|---9--------------|--11---10---------|--------8----8----|------------------|------------------|------------------|------------------|------------------|------------------|------------------|------------------|
Then for "a demigod is observing us...":
||---5---4--------|--3--3-------||||---5---4--------|--4--4-------||||---5---5--------|--5--5-------|| X2||---7---6--------|--5--5-------||||---7---6--------|--3--3-------||||---5---4--------|-------------||
||---2---2--------|--1--1------|--5--7--5--5--||||---3---3--------|--2--2------|--5--5--5--5--||||---4---4--------|--3--3------|--5--5--5--5--|| X2||---4---4--------|--3--3------|--7--7--7--5--||||---2---2--------|--1--1------|--7--7--7--7--||||----------------|------------|--5--5--5--5--||
And I'll leave the last part for another uploader.
Tap to rate this tab
 
# A B C D E F G H I J K L M N O P Q R S T U V W X Y Z