Opeth – White Cluster tab

Opeth - White Cluster
"Still Life"

another one outta the tab book, sorry its so long,
but if u want to play it perfect u gotta have it all right?

|-------2-----------------|-------------------------||*------2-----------------|------------------------*||-------2-----------------|-------------------------||-4-----4-----4s5---5---5-|---------5---4-----1-----||*4-----4-----4s5---5---5-|-7-------7---6-----3----*||-2-----2-----2s3(0)3---3-|-----6-------------------|
|-------------------------|-------------------------||*------------------------|-------------------------||-2-----4-4-4-4s5---5-----|(2)--4-5-------2-----2---||-2-----x-x-x-x-x---x-----|-x---------2-1---1-0-----||*0---0-2-2-2-2s3---3-----|-0----<0>--------------1-||-------------------------|-------------------------|
|-------------------------|-------------------------||-------------------------|-6-6-6-5-x-x-6-6-6-5-x-x*||-------2---1~------------|-4-4-4-4-x-x-x-x-x-x-x-x-||-----2-----------2-------|-5-5-5-5-----3-3-3-2-----||-0-----------------------|------------------------*||-------------------0---0-|-------------------------|
Gtr.2 |-------------------------|-------------------------||-------------------------|-------------------------||-------(look above)------|-4-4-4-4-----------------||-------------------------|-5-5-5-5-----------------||-------------------------|-------------------------||-------------------------|-------------1-1-1-0-----|
|-10-----------9----------|-6----|<6>---|<6>---|<6>---||-11----------10----------|-7----|<7>---|<7>---|<7>---||-12----------11----------|-8----|<8>---|<8>---|<8>---||-12----------11----------|-8----|<8>---|<8>---|<8>---||-------------------------|------|------|------|------||-------------------------|------|------|------|------|
|-------------------------|-2----|<2>---|<2>---|<2>---||-11----------10----------|-4----|<4>---|<4>---|<4>---||-12----------11----------|-3----|<3>---|<3>---|<3>---||-12----------11----------|-4----|<4>---|<4>---|<4>---||-10-----------9----------|-2----|<2>---|<2>---|<2>---||(10)*--------(9)*--------|(2)*--|------|------|------|
|-------------------------|-------------------------||*------------------------|-----------------*---*--*||-------------------------|-----------------0-*-0---||-------------------------|---------------5(h)6-----||*------------------------|-------------8----------*||-0h2-2-2-----0h3-3-3-----|-0h2-2-2-----------------|
|-------------------------|-------------------------||*------------------------|-------------------------||-------------------------|-----0---0---------0-----||-------------------------|---5(h)6---------4---4---||*------------------------|-8-------------7---------||-0h2-2-2-----0h3-3-3-----|-------------0-----------|
|
|-------------------------|------------------(0)----||*------------------------|-------------7-7-7-8-----||-6-6-6-7--(7)6-6-6-4--(x)|-5---5-5-5---------------||-------------------------|-------------------------||*------------------------|-------------------------||-------------------------|-------------------------|
|-------------------------|-------------------------||b8----r7-----5-----------|------------------------*||-------------------4-----|-2-----------------------||-------------------------|-----------------1h2s5h4-||-------------------------|------------------------*||-------------------------|-------------0-----------|
|-2-----------------------|-0-----------------------||*3-----------5-----------|-6----------------------*||-4-----------6-----------|-7-----------------------||-4-----------7-----------|-7-----------------------||*2-----------4-----------|-5----------------------*||-------------------------|-------------------------|
|-2---2-2-2---------------|-0---0-0-0-0-0---0-0-0---||*3---3-3-3-x-5---5-5-5-x-|-6---6-6-6-6-6---6-6-6-x*||-4---4-4-4-x-6---6-6-6-x-|-7---7-7-7-7-7---7-7-7-x-||*4---4-4-4-x-7---7-7-7-x-|-7---7-7-7-7-7---7-7-7-x-||-2---2-2-2---4---4-4-4---|-5---5-5-5-5-5---5-5-5--*||-------------------------|-------------------------|
|-2---2-------------------|-0-----------------------||-3---3-------5---5-------|-6-----------------------||-4---4-------6---6-------|-7-----------------------||-4---4-------7---7-------|-7-----------------------||-2---2-------4---4-------|-5-----------------------||-------------------------|-------------------------|3:42
|-------------------------|-------------------------||*s7----------6-----------|s10----------9-----------||--*----------*-----------|--*----------*-----------||-s4----------3-----------|s-7----------6-----------||*------------------------|-------------------------||-------------------------|-------------------------|
|
|-------------------------|-------------------------||*2---2-2-2---1---1-1-1---|-5---5-5-5---4---4-4-----||-2---2-2-2---1---1-1-1---|-5---5-5-5---4---4-4-----||-4---4-4-4---3---3-3-3---|-7---7-7-7---6---6-6-----||*4---4-4-4---3---3-3-3---|-7---7-7-7---6---6-6-----||-2---2-2-2---1---1-1-1---|-5---5-5-5---4---4-4-0---|
|-------------------------|-------------------------||s11----------9-----------|-11----12----9----------*||--*----------*-----------|--*-----*----*-----------||s-8----------6-----------|--8-----9----6-----------||-------------------------|------------------------*||-------------------------|-------------------------|
|
|-------------------------|-------------------------||-------------------------|------------------------*||-9---9-9-----9---9-9-----|------------%------------||-9---9-9-----9---9-9-----|-------------------------||-7---7-7-----7---7-7-----|------------------------*||-0---0-0-0---0---0-0-0---|-------------------------|
4:29Riff HGtr.1|-------------------------|-------------------------||*------------------------|-------------------------||-------------------------|-------------------------||-------5--p4-5-----------|---------7-8-5-------7---||*------------------------|-------5-----------------||-0-----------------0-4---|-3---3-------------------|
Gtr.2 ||-------------------------|-------------------------||*------------------------|-------------------------||-------------------------|-------------------------||-------------------------|---------7-8-5-------7---||*------7--p6-7-----------|-------5-----------------||-0-----------------0-4---|-3---3-------------------|
Gtr.1 4 times|-------------------------|-------------------------||-------------------------|-------5---5-6-5--------*||-----6-5-6-5-----5-4-5-4-|---4-5---5-------5---4-5-||-------------------------|-7-----------------7-----||-------------------------|------------------------*||-------------------------|-------------------------|
pm......> pm............> |Gtr.2 ||-6---6-6-----5---5-5-----|-3---5---5-5-5---5-5-5-5-||-6---6-6-----5---5-5-----|-3---5---5-5-5---5-5-5-5*||-6---6-6-----5---5-5-----|-3---5---5-5-5---5-5-5-5-||-8---8-8-----7---7-7-----|-5---7---7-7-7---7-7-7-7-||-8---8-8-----7---7-7-----|-5---7---7-7-7---7-7-7-7*||-6---6-6-----5---5-5-----|-3---5---5-5-5---5-5-5-5-|
|---------------->|---|-----------------|-----------------|------------------||----------------<|---|*----------------|----------------*|------------------||---------------->|---|-0---------------|-----------------|------------------||-2--------------<|--7|-----8-----7-----|----------------7|------------------||-2-------------->|-0-|*------9-----8---|<8>------------0*|<8>--gtr.4 out----||-0--------------<|---|------------(0)--|<0>--------------|<0>-------------35|
|-----------------|-----------------|-----------------|-----------------||*----------------|----------------*|*----------------|----------------*||-----------------|-------4---------|-----------------|---4-4---4-4-4---||-----------------|-----3-----------|-----------------|---3-3---3-3-3---||*----------------|---2------------*|*----------------|---2-2---2-2-2--*||-3---6-2---3-1---|<1>------------35|-3---6-2---3-1---|<1>------------35|
|-----------------|--------------------|-----------------|----------------------|-----------------|--------------------|-------------*---|-----------88--88-----|-----------------|--------------------|---------*---4---|-----5-----66--66-----|-----------------|--------------------|---------3---3---|-----4-----55--55-----|-----------------|--------------------|-----2---2---2---|-----3----------------|-3---6-2---3-1---|--------------------|-1---1--(1)-(1)--|-----2----------------
Solo > >> >>
|-------------11-------------------------|--------------------------------------|-12--12--13---------13---12p11h12--h11--|-12-----------------------------------|--------------------------------------12|----12-12-14-12-11-12-11--------------|----------------------------------------|-------------------------9------------|----------------------------------------|--------------------------------------|----------------------------------------|--------------------------------------
|----------------------------------------|--------------------------------------|*---------------------------------------|--------------------------------------|----------------9-----------9s10--------|-9------------------------------------|----------------x-----------x--x--------|-x-------------s8---------7----5-s7---|*7--------------7-----------7s-8--------|-7--------------x---------x----x--x---|-0----------0-0-0-------0-0-0--0--------|-0----------0-0s6---------5----3-s5---
|------------------------|-12---------*--*--*-------------------------------||---------8---7---10--7--|-------15--13h15p13-12-13-------------------------||-8---9------------------|--------------------------14----12----11----------||------------------------|--------------------------------------------------||------------------------|--------------------------------------------------||------------------------|--------------------------------------------------|
|-*----*----*----*-----*----*----#--#--#--#------------------------||-12---13---16---13--|-12---13---13-16-13-12-|(repeat----|---------||--------------------|-----------------------|previous---|----%----||--------------------|-----------------------|beat)------|---------||--------------------¤-----------------------¤-----------¤---------||------------------------------------------------------------------|
|---------------------------------------------------||-12h13p12----12-----*--*--*-------------#-------#--||----------14----14-12h14p12-11-12-11----11--#---11-||-------------------------------------14-----14-----||---------------------------------------------------||---------------------------------------------------|
|------------------------------------|------------------------------------------|--------------*--*--*---------------|------------------------------------------|-14--b1514---12h14p1211-------11s12-|-----------h-p----------------------------|------------------------------------|-14------121412-----------------------#---|------------------------------------|---------*-*-*-14-12---9-10-9-10----9-10--|------------------------------------|---------------*-----------------12-----
|------------------------------------------------------11h12h14p12p11-||----------------9--11--11--12---11--9--11--9--11h12h14---------------||*-------------|---------------|--------------|--------------#--------||13/9-p8h-9----|---------------|--------------|-----------------------||---------------------------------------------------------------------||---------------------------------------------------------------------|
|---------------------------------||*-------------------------------*||---------------------------------||-------6-----7-----4-6---4-------||*----------------------7---6-7-4*||-4-------------------------------|
|-11------------------------|-------------------------------------------------||------14-------------------|-16h17----16-------------------------------------||---------------------------|-------18----16----15----13----12----------------||---------------------------|----------------18----17----13----13-13-13-13----||---------------------------|-------------------------------------------------||---------------------------|-------------------------------------------------|
|---------------------------|--------------#----12----16-12----12-------------||---------------------------|-*----------b17------b17-------15----15-12-15-12-||-----s16---13--------------|b16----------------------------------------------||-14------------------------|-------------------------------------------------||---------------------------|-------------------------------------------------||---------------------------|-------------------------------------------------|
|-----------------------------------------------|-------------------------*-----|----12-----------------------------------------|-------------*--*--*-----12----|-14----14-13-14-13----13-----------------------|-------11----13s14-13----------|-------------------15----15-12-14--------------|-12----------------------------|-----------------------------------------------|-------------------------------|-----------------------------------------------|-------------------------------
|-*---14--*---*--*--*---------|----------15-19p15-------15-17-19-19-19--19--19-||-15--*---15--14h15-14--------|-------17----------17----------------*---*---*--||-----------------------------|----16----------------16------------------------||-----------------------------|-17---------------------------------------------||-----------------------------|------------------------------------------------||-----------------------------|------------------------------------------------|
|-18\-------------------------|------------------------*--7*-12-------||-17\-------------------------|--------------*--*---*--8--------------||-*---------------------------|--------*--*--7--10--9-----------------||-----------------------------|-*--*---9--8---------------------------||-----------------------------|-7--10---------------------------------||-----------------------------|---------------------------------------|
|----------------*------------|-11---------------------------------------------||-10----------4^^^^^^5--------|----12-12-12------------------------------------||-----------------------------|-------------13----------11-------------------*-||-----------------------------|-------------------12h13-------13p12-11gs----13-||-----------------------------|---------------(11)--------(11)-----------------||-----------------------------|------------------------------------------------|
|----------------------------------------------|-------------------#-#-#-#-#-#--|---------------9-13-9-------------------------|----------*-----*--13131314<>16-|-------11b13----------11----11----------------|-*--*--*--11-*--11--------------|-------------------------------13-11-10-------|-13-11-13----13-----------------|------------------------(11)------------------|--------------------------------|----------------------------------------------|--------------------------------
|--------------------------------|-----------------------------||1616----------------------------|-----------------------------||----18171817--17----------------|-----------------------------||------------18--181618~---------|<18>-------------------------||--------------------------------|-----------------------------||--------------------------------|-----------------------------|
|--------------------------------|--------4--------------------||--------------------------------|--------4-------------8------||--------------------------------|--------4------0------0------||--------------------------------|--------6------0------0------||--------------------------------|-6------6------x------x------||--------------------------------|-4------4------3------7------|
|-------------------------|-------|-------|-------|-------||-8-----------------------|-------|-------|-------|-------||-0-----------------------|-------|-------|-------|-------||-0-----------------------|-2-----|<2>----|<2>----|<2>----||-x-----------------------|-2-----|<2>----|<2>----|<2>----||-6-----------------1-----|-0-----|<0>----|<0>----|<0>----|
|-------------------------|-------|-------|-------|-------||-------0-----------------|-------|-------|-------|-------||-----3---3-------3-------|-------|-------|-------|-------||---0-------0---0---------|-------|-------|-------|-------||-1-----------1-----------|-------|-------|-------|-------||-------------------------|-------|-------|-------|-------|
|--------10131612---------|--------13172016---------||------12--h---p-14-------|------15--h---p-18-------||----11------------13-----|----14------------17-----||--12----------------14---|--15----------------18---||14--------------------16-|17--------------------20-||-------------------------|-------------------------|
|-2-----------0-------------------|---------------------------------||-----3-----------3-------3-------|<3>------------------------------||---------4-----------4-----------|---------------------------------||---------------------------------|---------4---0-------2h4h5p4p2p0-||-2------<2>--0------<0>----------|---------------------------------||-------------------------3-------|<3>----------3---0--<0>----------|
|---------------------------------|---------------------------------||-----------------0---0-----------|---------------------------------||---------0------s4---2-------5---|<5>--7-------5-------5-----------||---------2-----------------------|-----5-------7-------8-----------||-----0h2---------------------6---|<6>-<6>------6------<6>----------||-0-------------------------------|---------------------------------|
|---------------------------------|---------------------------------||---------------------------------|---------------------------------||---------------------------------|-3h5-3-------3-------2------h3*--||---------------------------------|---------0---------------0-------||---------------------------------|---------------------------------||---------------------------------|-3------<3>--1----------<1>--0---|
|---------------------------------|---------------------------------||------*--------------------------|---------------------------------||----2h3p2--0---------------------|-----------------------------5---||---------------3--s5-------------|-----------------------------5---||----------------------(3)----1h3-|-1p0-----1---3-------5-----------||---------------------------------|-----3p1-3---5---------------0---|
|---------------------------------|---------------------------------||---------------------------------|---------------------------------||<5>----------------2-------------|-3-------------------------------||<5>------------------------------|-0-------------------------------||-------------------0-------------|---------------------------------||<0>----------------2-------------|-3-------------------------------|
Comments, Hate mail and Death Threats to - clangerfreak@hotmail.com ~*jinxx*~
Please rate this tab:
x1.0