Opeth - April Ethereal tab

                         OPETH - APRIL ETHEREAL
                        From the Album STILL LIFE   
                    Copyright 1999 PEACEVILLE RECORDS

                       Version 1.0 - MARCH 2000

Transcribed by: Rick Massie

For Questions, Comments, Newest Version, or Corrections contact
       Rick Massie at: rmassie@acs.ryerson.ca

Check Out DEATH WARP, With More Transcriptions On It:
               http://tiger.towson.edu/~dalvis1

Check Out 's Web Page, With More Transcription On It:
               /index.html

join the death/black tab emailing list by emaliling 

  - pam mute                     /  - slide up to
\  - slide down to                ~  - vibrato
h  - hammer on                    b  - bend
p  - pull off                          Suffixes for bend
ph - pinch harmonic                     f - full bend    h - half bend
*  - see comment                        r - release      t - tap bend
X  - percussion note                    ~ - vibrato bend
@  - slight palm mute             ()  - ghost note, sustained note
"  - tremolo pick until next note


Opeth - April Ethereal

Tune to E (E,A,D,G,B,E)


Intro |-------------||-1-1-1-1-1-1-||-2-2-2-2-2-2-||-2-2-2-2-2-2-||-0-0-0-0-0-0-||-------------|
Riff A|---------------------------------------------------------------------------||-3---3-3-3-3-3---3-3-3-3-3---3-3-3-3-1-1-1-1-1-3-2--2-2-2-2-2---2-2-2-2-2--||-4---4-4-4-4-4---4-4-4-4-4---4-4-4-4-2-2-2-2-2-4-2--2-2-2-2-2---2-2-2-2-2--||-4---4-4-4-4-4---4-4-4-4-4---4-4-4-4-2-2-2-2-2-4-4--4-4-4-4-4---4-4-4-4-4--||-2---2-2-2-2-2---2-2-2-2-2---2-2-2-2-0-0-0-0-0-2-4--4-4-4-4-4---4-4-4-4-4--||-------------------------------------------------2--2-2-2-2-2---2-2-2-2-2--|
|--------------||-1-1-1-1-1-1--||-2-2-2-2-2-2--||-2-2-2-2-2-2--||-0-0-0-0-0-0--||--------------|
gtr 1|----------------------------------------------------------------------------||----------------------------------------------------------------------------||-9---9-9-9-9-9---9-9-9-9-9---9-9-9-9-9---9-9-9---9-9-9-9--------------------||-9---9-9-9-9-9---9-9-9-9-9---9-9-9-9-9---9-9-9---9-9-9-9--------------------||-7---7-7-7-7-7---7-7-7-7-7---7-7-7-7-7---7-7-7---7-7-7-7--------------------||-----------------8-8-8-8-8---7-7-7-7-7---7-7-7---7-7-7-7-8-----5-----2----5-|
|gtr2 ||----------------------------------------------------------------------------||-8---8-8-8-8-8---8-8-8-8-8---8-8-8-8-8---8-8-8---8-8-8-8--------------------||-9---9-9-9-9-9---9-9-9-9-9---9-9-9-9-9---9-9-9---9-9-9-9--------------------||-9---9-9-9-9-9---9-9-9-9-9---9-9-9-9-9---9-9-9---9-9-9-9--------------------||---------------------------------------------------------9-99910------7---10||----------------------------------------------------------------8-88885---8-|
Repeat Riff A
gtr 1|-------------------------------------------------------------||-------------------------------------------------------------||-------------------------------------------------------------||-4-----------------------2-----------------------------------||-4-----------------------2----------------------5--5---------||-2-----------------------0-----------------------------------|
|gtr 2 ||-------------------------------------------------------------||-------------------------------2-----------2-----------2-----||-------2-----------2---------2---2-------2---2-------2---2---||-----4---4-------4---4-----4-------4---4-------4---4-------4-||---4-------4---4-------4-4-----------4-----------4-----------||-2-----------2-----------------------------------------------|
gtr 1|-------------------------------------||-------------------------------------||-------------------------------------||-------------------------------------||------------4-----------4------------||---------------3--3--3-----3--3------|
|gtr 2 ||-------------------------------------||------2------------------------------||----2---2---------2-----------2------||--4-------4-----4---4-------4---4----||4-------------4-------4---4-------4--||------------2-----------2------------|
gtr 1|--------------------------------------------------------------------------||----------11-11-11-------------11--13-----------11-11-11------------------||----------10-10-10-------------10/-12-----------10-10-10------------------||----------8--8--8--------------8-/-10-----------8--8--8-------------------||-7--7---7-----------7--7---7-----------7--7---7-----------4--4---7--7--3--||-0--0---0-----------0--0---0-----------0--0---0------------------5--5--1--|
| gtr 2 ||--------------------------------------------------------------------------||--------------------------------------------------------------------------||--------------------------------------------------------------------------||--------------------------------------------------------------------------||-------------6-----------------6------------------6-------4--4------------||--0--0-0-0-0---5-6--0--0-0-0-0---5-6---0--0-0-0-0---5-6----------5--5--1--|
gtr 1|------------------------------------------------------------||------------------------------------------------------------||-12-121212-12-121212-9--9-9-9--9--9-9-9--14-141414-12-121212||------------------------------------------------------------||-10-101010-10-101010-10-101010-10-101010-12-121212-12-121212||------------------------------------------------------------|
|gtr 2 ||------------------------------------------------------------||------------------------------------------------------------||------------------------------------------------------------||------------------------------------------------------------||-----------------------------------------3--3-3-3--3--3-3-3-||-7--7-7-7--7--7-7-7--3--3-3-3--2--2-2-2---------------------|
gtr 1|----------------------||----------------------||-14141412121211111111-||----------------------||-12121212121212121212-||----------------------|
|gtr 2 ||----------------------||----------------------||-9-9-9-9-9-1111111111-||----------------------||-7-7-7-7-7-9-9-9-9-9--||----------------------|
|------------------------------------------------------||------------------------------------------------------||------------------------------------------------------||------------------------------------------------------||-7----------------7------------7------------2-63-2----||---6-5-0------------6-5-0000-----6-5-0000--0-4-----4--|
|------------------------------------------------------||------------------------------------------------------||-----------------------------------------------5-7-4--||-------------------------------------------2-6--------||-7----------------7------------7---------------3-5-2--||---6-5-0------------6-5-0000-----6-5-0000--0-4--------|
|-------------||-------------||-----4-----5-||---2-----3---||-------------||-3-----4-----|
|-----------||-----------||-----------||-----------||-----------||--3--2--0--|
gtr 1 solo rhythm|---------------------------------------------------||-8--8-8-8--8-8-7-7-7-7-7---3--3-3-3--3-3-3-3-3-3-3-||-9--9-9-9--9-9-9-9-9-9-9---4--4-4-4--4-4-4-4-4-4-4-||-9--9-9-9--9-9-9-9-9-9-9---4--4-4-4--4-4-4-4-4-4-4-||-7--7-7-7--7-7-7-7-7-7-7---2--2-2-2--2-2-2-2-2-2-2-||---------------------------------------------------|
|---------------------------------------------------||-6--6-6-6--6-6-5-5-5-5-5--1--1-1-1--1-1-1-1-1-1-1--||-7--7-7-7--7-7-7-7-7-7-7--2--2-2-2--2-2-2-2-2-2-2--||-7--7-7-7--7-7-7-7-7-7-7--2--2-2-2--2-2-2-2-2-2-2--||-5--5-5-5--5-5-5-5-5-5-5--0--0-0-0--0-0-0-0-0-0-0--||---------------------------------------------------|
gtr1|---------------------------------------------||---------------------------------------------||---------------------------------------------||-5~----9~-----9-7----------------------------||------------------9~----10\7~--9/10~--12\9~--||---------------------------------------------|
|gtr2 | note*gtr 2 strums chords|---------------------------------------------| after 2 repeats|-8------------------------------8------------||-9-----5------7----------5------9-----7------||-9-----7------9----------7------9-----9------||-7-----7------9----------7------7-----9------||-------5------7----------5------------7------|
acoustic gtr 1|----------------------------------------------------------||----------------------------------------------------------||----------------------------------------------------------||-5~----9~-----9-7-----------------------------------------||------------------9~---------------10\7~--9/10~--12\9~----||----------------------------------------------------------|
|acoustic gtr 2 ||------0--------0------------2~-----------------------0----||----0--------0------------2---------------------------3---||--0--------2-----4p2----4--------------2------9--------2~-||----------------------4--------------2------9------4------||---------0----------2--------------0------7------2--------||-0--------------------------------------------------------|
just strum randomly|------------------------------------------------------------------||------------------------------------------------------------------||------------------------------------------------------------------||------------------------------------------------------------------||-2-2-2-2-2-2-2-2-2-2-..........-----------------------------------||-0-0-0-0-0-0-0-0-0-0-..........-----------------------------------|
| gtr2 2 times|-------------------------|----------------------------------------||-------------------------|----------------------------------------||----7-----7-----7-----7--|----9-----9-----9-----9-----9-----9--9~-||---9-9---9-9---9-9---9-9-|---8-8---8-8---8-8---8-8---8-8---8-8-8--||-7-----7-----7-----7-----|-7-----7-----7-----7-----7-----7-----7--||-------------------------|----------------------------------------|
|-------------------------------------||-------------------------------------||-------------------------------------||-------------------------------------||-6/7~-----7/10~-----10\4~-4/13~------||-------------------------------------|
| ||-------------------------------------||-------------------------------------||-------------------------------------||-------------------------------------||--------------------7---------888-6~-||---00-0-0-----000-0---0--00-00666----|
both gtrs|---------||---------||---------||---------||-1----1--||-0--0-0--|
gtr1|-----------------------------------------------------------------||-----------------------------------------------------------------||-----------------------------------------------------------------||-2-------2-------9---------------4-4-444-7-7-777-----------------||-2-2-222-2-2-222-9-9-999-109-999-5-5-555-5-5-555-9-9-999-9-9-999-||-0-0-000-0-0-000-7-7-777-7-7-777-----------------5-5-555-6-6-666-|
| gtr2 ||-----------------------------------------------------------------||-----------------------------------------------------------------||-----------------------------------------------------------------||-5p4-44445p4-44445p4-44445p4-44444-4-555-7-7-777-4-4-444-4-4-444-||-----------------------------------------------------------------||-----------------------------------------------------------------|
gtr 1|-----------------------------------------------------------------||-----------------------------------------------------------------||-------------------------------------------------------4---------||-----------------9-9-9-9-9--------------------------4-----5-4~---||-777777777777------------------------------------2---------------||---------------------------7-7-7-7-5-5-55-1-1-11-----------------|
| gtr2 ||-----------------------------------------------------------------||-----------------------------------------------------------------||-----------------------------------------------------------------||-5p4-44445p4-44445p4-44445p4-44444-4-555-7-7-777-4-4-444-4-4-444-||-----------------------------------------------------------------||-----------------------------------------------------------------|
both gtrs|--------------------------------------2------------------||-----------------------------------------3-2~------------||--------4--------------4-----------------------5~--------||----4------5-4~-----4-----5-4~-----4----------------4~---||-2---------------2--------------2------------------------||---------------------------------------------------------|
outrogtr 1|-------------------------------------------------------------||-------------------------------------------------------------||-------------------------------4~------------2~--------------||-------------------------------4-------------2---------------||-------------------------------2-------------0---------------||-0-0000-0-00002h35~-023~-------------------------------------|
|gtr2 ||-------------------------------------------------------------||---------------------------------------------7-7777-7-5-5555-||-4-4444-4-4-4-6--7-7777-7-7777-7-7777-7-7777-7-7777-7-6-6666-||-5-5555-5-5-5-7--9-9999-9-9999-9-9999-9-9999-----------------||-------------------------------------------------------------||-------------------------------------------------------------|
Check Out DEATH WARP, With More Transcriptions On It: http://tiger.towson.edu/~dalvis1 Check Out 's Web Page, With More Transcription On It: /index.html
Tap to rate this tab
 
# A B C D E F G H I J K L M N O P Q R S T U V W X Y Z