Orange Range - Chest tab

Intro: 
                         
| ------------------------ || ------------------------ || ------------------------ || -------9-9---9---------- | x8| ---7-7-----7---777-10--- || ------------------------ |
Intermission:
| -----------------------|----------------------- || -----------------------|----------------------- || -----------------------|----------------------- || -----------------------|----------------------- | x2| ---5p2-2--5p2-2-2-8-8--|--5p2-2--5p2-2-2-4-5--- || ---5p2-2--5p2-2-2-8-8--|--5p2-2--5p2-2-2-4-5--- |
Verse:
| ------------------- | | ------------------- | | ------------------- | | -------------5^---- | x7 | ---2-2--2-2-------- | | ---2-2--2-2-------- |
| -------------- || -------------- || -------------- || -------------- || ---2-2--2-2--- ||---2-2--2-2---- |
Chorus:
| -----------------------|----------------------- || -----------------------|----------------------- || -----------------------|----------------------- || -----------------------|----------------------- | x2| ---5p2-2--5p2-2-2-8-8--|--5p2-2--5p2-2-2-4-5--- || ---5p2-2--5p2-2-2-8-8--|--5p2-2--5p2-2-2-4-5--- |
| -----------------------------|----------------------------- || -----------------------------|----------------------------- || -----------------------------|----------------------------- || -----------------------------|----------------------------- | x2| ---2-2-2-5p2-2-2--2-5p2-8-8--|--2-2-2-5p2-2-2--2-5p2-4-5--- || ---2-2-2-5p2-2-2--2-5p2-8-8--|--2-2-2-5p2-2-2--2-5p2-4-5--- |
Intermission:
| ------------------------ || ------------------------ || ------------------------ || -------9-9---9---------- || ---7-7-----7---777-10--- || ------------------------ |
| -----------------------------|----------------------------- || -----------------------------|----------------------------- || -----------------------------|----------------------------- || -----------------------------|----------------------------- | x2| ---2-2-2-5p2-2-2--2-5p2-8-8--|--2-2-2-5p2-2-2--2-5p2-4-5--- || ---2-2-2-5p2-2-2--2-5p2-8-8--|--2-2-2-5p2-2-2--2-5p2-4-5--- |
| ------------------------------ || ------------------------------ || ------------------------------ || ------------------------------ || ------------------------------ || ---2-2-2-5p2-2-2--2-5p2-4-5--- | . . . . . . . . . . . .
2nd Verse:
| ------------------- || ------------------- || ------------------- || -------------5^---- | x4| ---2-2--2-2-------- || ---2-2--2-2-------- |
| -------------------- || -------------------- || -------------------- || -------9-9---9------ | x3 | ---7-7-----77--10--- || -------------------- |
| -------------- || -------------- || -------------- || -------------- || ---2-2--2-2--- || ---2-2--2-2--- |
Chorus:
| -----------------------|----------------------- || -----------------------|----------------------- || -----------------------|----------------------- || -----------------------|----------------------- | x2| ---5p2-2--5p2-2-2-8-8--|--5p2-2--5p2-2-2-4-5--- || ---5p2-2--5p2-2-2-8-8--|--5p2-2--5p2-2-2-4-5--- |
| -----------------------------|----------------------------- || -----------------------------|----------------------------- || -----------------------------|----------------------------- || -----------------------------|----------------------------- | x4| ---2-2-2-5p2-2-2--2-5p2-8-8--|--2-2-2-5p2-2-2--2-5p2-4-5--- || ---2-2-2-5p2-2-2--2-5p2-8-8--|--2-2-2-5p2-2-2--2-5p2-4-5--- |
楽しみなさい
Tap to rate this tab
 
# A B C D E F G H I J K L M N O P Q R S T U V W X Y Z