Ossian – Rocker Vagyok tab

Chorus/Starting RIFF
                                                                        
E||----------------------|-----------------------|---------------------|B||----------------------|-----------------------|---------------------|G||--5----7----5------5--|--7----7--5----5--5----|---------------------|D||--7----7----7------7--|--7----7--7----7--7----|--2----3----2--------|A||--0----0----0------0--|--0----0--0----0--0----|--3----3----3--------|E||----------------------|-----------------------|---------------------|
-------------------------|---------------------|-------------------------|--6-----6--5-----5--5----|---------------------|-------------------------|--5--5--5--5--5--5--5----|--5----7----5--------|-------------------------|-------------------------|--7----7----7--------|-------------------------|-------------------------|--0----0----0--------|----------------2-----2--|-------------------------|---------------------|--3----5--3--3-----3-----|
-----------------------|--------------------------|----------------------|-----------------------|--------------------------|----------------------|--5----7----5----------|--------------------------|--5----7----5------5--|--7----7----7----------|--------------------------|--7----7----7------7--|--0----0----0--0--0----|--------------------------|--0----0----0------0--|-----------------------|--0--0h-3h-0--0h-5h-0h-5--|----------------------|
-----------------------|---------------------|-------------------------|-----------------------|---------------------|--6-----6--5-----5--5----|--7----7--5----5--5----|---------------------|--5--5--5--5--5--5--5----|--7----7--7----7--7----|--2----3----2--------|-------------------------|--0----0--0----0--0----|--3----3----3--------|-------------------------|-----------------------|---------------------|-------------------------|
---------------------|-------------------------|-----------------------|---------------------|-------------------------|-----------------------|--5----7----5--------|-------------------------|--5----7----5--5--5/---|--7----7----7--------|-------------------------|--7----7----7--7--7/---|--0----0----0--------|----------------2-----2--|--0----0----0--0--0----|---------------------|--3----5--3--3-----3-----|-----------------------|
----------------------|----------------------||----------------------|----------------------||----------------------|----------------------||--3--2----------------|--3--2----------------||--------3-------------|--------3-------------||-----------3~---------|-----------3~---------||
Starting solo
E||--------------------|--------------------------|--20---19---20--19~-----19r-|B||--20----------------|--20----------------------|----------------------------|G||--19b---------------|--19r--17h19h-17----------|----------------------------|D||--------------------|--------------------------|----------------------------|A||--------------------|--------------------------|----------------------------|E||--------------------|--------------------------|----------------------------|
----17h-19h17-------------|----22r---20h22~--------|--------------20b---------|------------------------|--------------------------|------------------------|--------------------------|------------------------|--------------------------|------------------------|--------------------------|------------------------|
slide--------------------------------|---------------------|--12r--10h12h10-----------------|---------------------|----------------12h10h12~-------|--14--2~-------------|--------------------------------|---------------------|--------------------------------|---------------------|--------------------------------|---------------------|
--------------------------|-------------------------||--------------15~---------|-------------------------||--14h-12------------------|--10h-9------------------||----------12--------------|---------10--------------||--------------------------|-------------10~---------||--------------------------|-------------------------||
(RIFF 2)
E||-------------------------|--------------------------|B||-------------------------|--------------------------|G||-------------------------|--------------------------|D||--2----2--2--2--2--2--2--|--2--2--2--2--2--2--2--2--|A||--0----0--0--0--0--0--0--|--0--0--0--0--0--0--0--0--|E||-------------------------|--------------------------|
(2x)--------------------------|--------------------------|-----------------------||--------------------------|--------------------------|-----------------------||--------------------------|--------------------------|-----------------------||--4--4--4--4--4--4--4--4--|--5--5--5--5--5--5--5-----|-----------------------||--2--2--2--2--2--2--2--2--|--3--3--3--3--3--3--3-----|--3----3--2----5----5--||--------------------------|-----------------------0--|--1----1--0----3----3--||
Bridge Pre chorus
E||------------------------|----------------------|-------------------------|B||-----------6~-----------|--5r------------------|-----------6-------------|G||--------7-------7-------|---------5-------7----|--------7-------7--------|D||-----7-------------7----|------------5---------|-----7-------------7-----|A||--5---------------------|------------5---------|--5-------------------5--|E||------------------------|----------------------|-------------------------|
--------------------||--------------------||--5-----------------||--5--------5--------||--3--------2--------||-----------3--------||
Solo
E||--------------------------------------|----------------------------|B||--------------------------------------|--15--17--19--19~-----------|G||-----------------------------14-16-18-|----------------------------|D||-----------------14-16-17-18----------|----------------------------|A||--------14-16-17----------------------|----------------------------|E||--------------------------------------|----------------------------|
------------------14--------|------------19t-------10h12h|--12----14r---12--------12--|--14r---12------------------|----------------------------|----------------------------|----------------------------|----------------------------|----------------------------|----------------------------|----------------------------|----------------------------|
--16h12h10h0h10h12h16h12h10h0h10h12h17h12h10h0h10h12h17h12h10h0h10h12h|----------------------------------------------------------------------|----------------------------------------------------------------------|----------------------------------------------------------------------|----------------------------------------------------------------------|----------------------------------------------------------------------|
--16h12h10h0h10h12h17h12h10h0h10h12h16/-----19--|------------------------------------------------|------------------------------------------------|------------------------------------------------|------------------------------------------------|------------------------------------------------|
--------16-17-16-16-19h16----------|---------------------------------|--17----------------------17/---5--|----9-9-10-10-10-10---12/--x-----|-----------------------------------|-----------------------------14b-|-----------------------------------|---------------------------------|-----------------------------------|---------------------------------|-----------------------------------|---------------------------------|
-------------------------------------|--------------------------------|------15-----15----------------------|--------------------------------|----------14b---14--13h11-13h11/9h11h|--9-------------------------19/-|-------------------------------------|----11h12h11/9------------------|-------------------------------------|---------------12/-7~-----------|-------------------------------------|--------------------------------|
-------------------------------------|------------------------------------|-------------------------------------|------------------------------------|--16~---14h16h14h16h14/13------------|------------------------------------|----------------------------14~---5/-|--14--12------------------------12--|-------------------------------------|----------14--13--12/-11~-----------|-------------------------------------|------------------------------------|
-------------------------------------------------|-------------10----------12----10-12-14-10-12-14-|--11-9-11-13----13-11-13----13-------------------|-------------------------------------------------|-------------------------------------------------|-------------------------------------------------|
--10-------10-12-10----10-14-0-0-0-17-0-0-0-|-----12-14----------14----------------------|--------------------------------------------|--------------------------------------------|--------------------------------------------|--------------------------------------------|
--10-12-0-0-9-10-0-0-7-9-0-0-9-10-0-0-|--12/-0-0-0-10-12/-0-0-0-12/---x-||--------------------------------------|---------------------------------||--------------------------------------|---------------------------------||--------------------------------------|---------------------------------||--------------------------------------|---------------------------------||--------------------------------------|---------------------------------||
Solo 2. (end of the song) - Tapping
E||--17-15-13-12-13-15-17-15-13-12-------------------------------|B||--------------------------------17-15-13-12-13-15-17-15-13-12-|G||--------------------------------------------------------------|D||--------------------------------------------------------------|A||--------------------------------------------------------------|E||--------------------------------------------------------------|
--17-15-13-12-------------17-15-13-12-------------|--------------17-15-13-12-------------17-13-12-10-|--------------------------------------------------|--------------------------------------------------|--------------------------------------------------|--------------------------------------------------|
------------------------------------------------------------|--17-13-12-10-12-13-17-13-12-10-----------------------------|--------------------------------14-12-10-9-10-12-14-12-10-9-|------------------------------------------------------------|------------------------------------------------------------|------------------------------------------------------------|
-----------------------------------------|-------------------------------||-----------------------------------------|-------------------------------||-----------------------------------------|-------------------------------||--7-9-10-9-7-5-3-2-3-9-7-5-3-2-0---------|-------------------------------||---------------------------------8-7-5-3-|----------8-7-5-3---------0~---||-----------------------------------------|--8-7-5-3---------8-7-5-3------||
Please rate this tab:
x1.0