Ossian - A Vrfarkas tab

A vérfarkas


RIFF I.
                                                                 
E||------------------------------|------------------------------|B||------------------------------|------------------------------|G||------------------------------|------------------------------|D||------------------------------|------------------------------|A||------4-----------------------|------5-----------------------|E||--2/------2-2-2-2-2-2-2-2-2-2-|--2/------2-2-2-2-2-2-2-2-2-2-|
------------------------------|-------------------------|------------------------------|-------------------------|------------------------------|-------------------------|------------------------------|-----------------2--2----|------7-----------------------|--7--0-6--0-5----2--2----|--2/------2-2-2-2-2-2-2-2-2-2-|-------------------------|
------------------------------|------------------------------|------------------------------|------------------------------|------------------------------|------------------------------|------------------------------|------------------------------|------4-----------------------|------5-----------------------|--2/------2-2-2-2-2-2-2-2-2-2-|--2/------2-2-2-2-2-2-2-2-2-2-|
--------------------|-------------------------|-------------------------------|--------------------|-------------------------|-------------------------------|--------------------|-------------------------|-------------------------------|--------------------|-------------------------|-------------------------------|--4----2------------|-------------------------|-------------------------------|--2----0------------|--2--0--0--5----5--4--0--|--2----2-2-2-2-2-2-2-2-2-2-2-2-|
----------------------------------|----------------------------------|----------------------------------|----------------------------------|----------------------------------|----------------------------------|----------------------------------|----------------------------------|----------------------------------|----------------------------------|--2-2-2-2-2-2-2-2-2-2-2-2-2-2-2-2-|--2-2-2-2-2-2-2-2-2-2-2-2-2-2-2-2-|
---------------------||---------------------||---------------------||-----2----2----------||-----0----0----------||--2------------------||
Kíséret
E||-------------------------------|----------------------------------|B||-------------------------------|----------------------------------|G||*------------------------------|----------------------------------|D||*------------------------------|----------------------------------|A||-------------------------------|----------------------------------|E||--2----2-2-2-2-2-2-2-2-2-2-2-2-|--2-2-2-2-2-2-2-2-2-2-2-2-2-2-2-2-|
1., 3.-------------------------------| -------------------------||-------------------------------| -------------------------||-------------------------------| ------------------------*||-------------------------------| ------------------------*||-------------------------------| -------------------------||--0----0-0-0-0-0-0-0-0-0-0-0-0-| --2--0--0--5----5--4--0--||
2. 4.| -----------------------|| --------------------------||| -----------------------|| --------------------------||| ----------------------*|| -------------------------*||| ----------------2-----*|| -------------------------*||| -----------0----0------|| --------------------------||| --2--0--0--------------|| --2h-0--0--2h-0--0--2h-4--||
Átkötő ("Telihold...")
E||--------------------|--------------------|-------------------------|B||--------------------|--------------------|-------------------------|G||--------------------|--------------------|-------------------------|D||--2-----------------|--4-----------------|-------------------------|A||--0--------2--------|--2--------4--------|--2----2--2--2--2--2--2--|E||-----------0--------|-----------2--------|--0----0--0--0--0--0--0--|
--------------------------|--------------------|--------------------|--------------------------|--------------------|--------------------|--------------------------|--------------------|--------------------|--------------------------|--2-----------------|--4-----------------|--------------------------|--0--------2--------|--2--------4--------|--2h-0--0--2h-0--0--2--4--|-----------0--------|-----------2--------|
-------------------------|-----------------------||-------------------------|-----------------------||--4----4--4--4--4--4--4--|--4--6--6--6--6--------||--2----2--2--2--2--2--2--|--2--4--4--4--4--------||-------------------------|-----------------------||-------------------------|-----------------------||
Refrén
E||--------------------|--------------------|--------------------|B||--------------------|--------------------|--------------------|G||--------------------|--------------------|--------------------|D||--6------7----------|--2------4----------|--4------2----------|A||--4------4----------|--4------4----------|--2------0----------|E||--------------------|--------------------|--------------------|
---------------------|--------------------|--------------------|---------------------|--------------------|--------------------|---------------------|--------------------|--------------------|--6------------------|--6------7----------|--2------4----------|--4----4--4----------|--4------4----------|--4------4----------|-------2--2----------|--------------------|--------------------|
--------------------|---------------------|---------------------|--------------------|---------------------|---------------------|--------------------|---------------------|--2------------------|--4------2----------|--6------------------|--0------------------|--2------0----------|--4----4--4----------|-------4--4----------|--------------------|-------2--2----------|-------2--2----------|
Trem.Dive---------------------|--------------------------|-------------------||---------------------|--------------------------|-------------------||--2------------------|--------------------------|-------------------||--0------------------|--------------------------|-------------------||---------4------4----|--4--2--2--2--2--2--2--2--|-------------------||---------2------2----|--2--0--0--0--0--0--0--0--|--0~---------------||
Szóló - 1. rész / Natural Harmonics (üveghang)
E||--------------------|---------------------|--------------------|B||--------------------|---------------------|--------------------|G||--------------------|--7------------------|--------------------|D||---------7----------|----------------7----|---------4----------|A||--4-----------------|---------4-----------|--4-----------------|E||--------------------|---------------------|--------------------|
------------------|--------------------|---------------------|------------------|--------------------|---------------------|------------------|--------------------|--7------------------|------------------|---------7----------|----------------7----|------------------|--4-----------------|---------4-----------|------------------|--------------------|---------------------|
----------------------|------------------|--------------------|----------------------|------------------|--------------------|----------------------|------------------|--------------------|----------------------|------------------|---------7----------|--7-------------------|------------------|--4-----------------|---------7------12----|------------------|--------------------|
---------------------|--------------------|------------------|---------------------|--------------------|------------------|--7------------------|--------------------|------------------|--7-------------7----|---------4----------|------------------|---------4-----------|--4-----------------|------------------|---------------------|--------------------|------------------|
(innentől rendesen lefogva)--------------------|---------------------|--------------------|--------------------|---------------------|--------------------|--------------------|--7------------------|--------------------|---------7----------|----------------7----|-----------9--------|--4-----------------|---------4-----------|--7-----------------|--------------------|---------------------|--------------------|
----------------------|--------------------|--------------------|----------------------|--------------------|--------------------|--9-------------------|--------------------|--------------------|-------9--------------|--------------------|--------------------|------------7/-----0--|--4~----------------|--4b----------------|----------------------|---------5----------|---------------5----|
--------------------|------------------------------|--------------------|--------------------|------------------------------|--------------------|--------------------|--2------4------4b--2h4h2-----|--------------------|---------4~---------|-----4-4----4-4-----------4h2-|--------------------|--4-----------------|------------------------------|--4~----------------|--------------------|------------------------------|---------5----------|
---------------------|-------------------|------------------------|---------------------|-------------------|------------------------|---------------------|-------------------|--2~-----4h2/1----------|---------------------|-------------------|-----------------2------|--4b-----4-----------|--2----------------|---------------------2--|----------------5----|--0----------------|------------------------|
--------------------|--------------------|--------------------|--------------------|--------------------|--------------------|--------------------|--------------------|--------------------|--------------------|--------------------|---------4~---------|--4~----------------|--4b----------------|--4-----------------|---------5----------|---------------5----|--------------------|
----------------------------|--------------------|---------------------|-----------------------7~---|--------------------|---------------------|--2------4------6-----------|--------------------|---------------------|-----4-4----4-4----4-4------|--------------------|---------------------|----------------------------|--4~----------------|--4b-----4-----------|----------------------------|---------5----------|----------------5----|
Szóló - 2. rész--------------------|-------------------|--------------------------2-------|--------------------|-------------------|--2-------3-------5---------------|--------------------|-------------------|----2-2-2---2-2-2---2-2-2---2-2-2-|-----------------9--|--9~---------------|----------------------------------|--2--------------7--|--7~---------------|----------------------------------|--0-----------------|-------------------|----------------------------------|
----------------------------------|--------------------------|--5-------3-------2-------3-------|--2h3h2h3-----------------|----2-2-2---2-2-2---2-2-2---2-2-2-|----------2~-----1----2---|----------------------------------|--------------------------|----------------------------------|--------------------------|----------------------------------|--------------------------|
--------------------------|--------------------------2-------|--------------------------|--2-------3-------5---------------|--1h2h1h2h1---------------|----2-2-2---2-2-2---2-2-2---2-2-2-|--------------2--4~-------|----------------------------------|--------------------------|----------------------------------|--------------------------|----------------------------------|
--4-------------------------------|----------------------------------|----------5-------3-------2-------|--2h3h5h3h2h0---------------------|----2-2-2---2-2-2---2-2-2---2-2-2-|--------------1h2h4h2h1-----------|----------------------------------|------------------------4h0h2h4h2h|----------------------------------|----------------------------------|----------------------------------|----------------------------------|
--------------------------|------------------------|--------------------------|--15b-----------15--14--|--------------------------|------------------------|--0-----------------------|------------------------|----4h0h2h4---------------|------------------------|-------------2-0-2~-------|------------------------|
------------------------12--|--14-16-17-14-16----14----------------------------|--12--14----15--12~---------|-----------------17----15-17-14-15-12-14-10-------|----------------------------|--------------------------------------------13-11-|----------------------------|--------------------------------------------------|----------------------------|--------------------------------------------------|----------------------------|--------------------------------------------------|
------------------------------|-----------------------------|-----10-12-10-10/-2--2--------|-----------------------------|--13--------------------------|-----------------4---4-6-----|------------------------------|--6--4-6-7-4-6-7---7---------|------------------------------|-----------------------------|------------------------------|-----------------------------|
-----------------------|--------------------------|------------14----------||----------9~-----------|--------------------------|------------17b---------||--7-6-7/9--------------|--------------------------|------------------------||-----------------------|--------------------------|------------------------||-----------------------|--16~-------16---14---12--|--14--16----------------||-----------------------|--------------------------|------------------------||
Tap to rate this tab
 
# A B C D E F G H I J K L M N O P Q R S T U V W X Y Z