Otep - Oh So Surreal tab

Well.. this is my first tab.
I couldn't find this song(or any other good Otep songs) tabbed out on here, so I was 
"what the hell?", so I tabbed this song out myself.

I'm not fully sure on if this is how it's played, but this is how I play it and it 
almost the same as the song.
Enjoy! =D

[intro]
clean - very light distortion(opt.)

I wish I didnt know....|----------------------------------------------------||----------------------------------------------------||----------------------------------------------------||---2---2~-----2---3~----2---2~-----2---3~-----------||----------------------------------------------------||-2---2------2---2-----2---2-----2---2---------------|
|----------------------------------------------------||----------------------------------------------------||----------------------------------------------------||---2---3p2-0-2-----2---3p2-0-2-----2---3p2-0-2------||----------------------------------------------------||-2---2-----------2---2-----------2---2--------------|
heavy distortion|----------------------------------------------------||----------------------------------------------------||----------------------------------------------------||-2-2-2-3-2-0-2~-------------------------------------||-2-2-2-3-2-0-2~-------------------------------------||-2-2-2-3-2-0-2~-------------------------------------|
[verse]Clean - very light distortion ... And as a child..|----------------------------------------------------||----------------------------------------------------||-----------------------1----------------------------||---2---3p2-0-2-----2-----2-0-2-0-----2---3p2-0-2----||----------------------------------------------------||-2---2-----------2---2-------------2---2------------|
|----------------------------------------------------||----------------------------------------------------||---------------------------------------1------------||---2---3p2-0-2-----2---3p2-0-2-----2-----2-0-2-0----||----------------------------------------------------||-2---2-----------2---2-----------2---2--------------|
|----------------------------------------------------||----------------------------------------------------||----------------------------------------------------||---2---3p2-0-2-----2---3p2-0-2-----2---3p2-0-2------||----------------------------------------------------||-2---2-----------2---2-----------2---2------2-------|
|----------------------------------------------------||----------------------------------------------------||----------------------------------------------------||---2---3p2-0--2--3p2-0-2--3p2-0---------------------||----------------------------------------------------||-2---2-------2-2------2-2---------------------------|
[chorus]heavy distortion ...Apathy is so hip...|----------------------------------------------------||----------------------------------------------------||--------------------------555-555-------------------||-3-22--3-22--3-22--3-22---555-555-------------------||-3-22--3-22--3-22--3-22---333-333-------------------||-3-22--3-22--3-22--3-22-----------------------------| ... ...
|----------------------------------------------------||----------------------------------------------------||--------------------------555-555-------------------||-3-22--3-22--3-22--3-22---555-555-------------------||-3-22--3-22--3-22--3-22---333-333-------------------||-3-22--3-22--3-22--3-22-----------------------------| ... ...
|----------------------------------------------------||----------------------------------------------------||----------------------------------------------------||--7/8/9/10101010/9/8/7777/8/9/10101010--------------||--5/6/7/-8-8-8-8/7/6/5555/6/7/-8-8-8-8--------------||----------------------------------------------------|
|----------------------------------------------------||----------------------------------------------------||----------------------------------------------------||--7/8/9/10101010/9/8/7777/8/9/10101010--------------||--5/6/7/-8-8-8-8/7/6/5555/6/7/-8-8-8-8--------------||----------------------------------------------------|
|----------------------------------------------------||----------------------------------------------------||--------------------------555-555-------------------||-3-22--3-22--3-22--3-22---555-555-------------------||-3-22--3-22--3-22--3-22---333-333-------------------||-3-22--3-22--3-22--3-22-----------------------------| ... ...
|----------------------------------------------------||----------------------------------------------------||--------------------------555-555-------------------||-3-22--3-22--3-22--3-22---555-555-------------------||-3-22--3-22--3-22--3-22---333-333-------------------||-3-22--3-22--3-22--3-22-----------------------------| ... ...
|----------------------------------------------------||----------------------------------------------------||----------------------------------------------------||--7/8/9/10101010/9/8/7777/8/9/10101010--------------||--5/6/7/-8-8-8-8/7/6/5555/6/7/-8-8-8-8--------------||----------------------------------------------------|
|----------------------------------------------------||----------------------------------------------------||----------------------------------------------------||--3-3-3-3-3-3-0~------------------------------------||--3-3-3-3-3-3-0~------------------------------------||--3-3-3-3-3-3-0~------------------------------------|
[verse] [chorus]
{bridge}|----------------------------------------------------||----------------------------------------------------||---------------------5----------------------5-------||-2222-2222-2222-2222-5--2222-2222-2222-2222-5-------||-2222-2222-2222-2222-3--2222-2222-2222-2222-3-------||-2222-2222-2222-2222----2222-2222-2222-2222---------| .... .... .... .... .... .... .... ....
|----------------------------------------------------||----------------------------------------------------||----9/-----10/------8/------9/----------------------||-2229/--22210/---2228/---2229/----------------------|3x|-2227/--2228/----2226/---2227/----------------------||-222----222------222-----222------------------------| ... ... ... ...
|----------------------------------------------------||----------------------------------------------------||----------------------------------------------------||-222------------------------------------------------||-222------------------------------------------------||-222------------------------------------------------| ...
[chorus] -pause- [ending verse] This is how the song goes. -Intro -Verse -Chorus -Verse -Chorus -Bridge -Chorus -End verse
Tap to rate this tab
 
# A B C D E F G H I J K L M N O P Q R S T U V W X Y Z