Ounce Of Self - Drink Up tab

Artist: Ounce of Self

Song: Drink Up

Tabbed by: Kyle Lirette

Tuning: Open C tuning

Email me for suggestions or comments at kylekool150@hotmail.com.
I don't know if too much is correct, it's my first attempt at a tab.
Everything is with effort except the solo, I did not bother trying to tab it right now,
but I might make a seperate tab for it some time...


Intro-------------------------------|-------------------------------|-------------------------------|---------3-0-------------------|---5p3p0------7-----------5----|-0------------7--7p5p3--6---6--|
-------------------------------|-------------------------------|-------------------------------|---------3-0-------------------|-0-5p3p0------7-----------5----|-0------------7--7p5p3--6---6--|
-------------------------------|-------------------------------|-------------------------------|---------3-0-------------------|-0-5p3p0------7-----------5----|-0------------7--7p5p3--6---6--|
-------------------------------|-------------------------------|-------------------------------|---------3-0-------------------|-0-5p3p0-----------------------|-0------------777666-5-5-55----| pmpmpmpmpmpmpm
Verse---------------------------------|---------------------------------|---------------------------------|---------------------------------| (x4)---------3-3-5-------------------|-0-0-3h5-----5-00-0--3h5p3-3h5p3-|pmpm pmpm
Chorus--------------------------------|--------------------------------|--------------------------------|--------------------------------|--------2-2-----3-3----3h5-5--6-|0-0-3h5-----3h5------5--------6-|
--------------------------------|--------------------------------|--------------------------------|----------------------------3-3-|--------2-2-----3-3----3h5------|0-0-3h5-----3h5------5----------|
--------------------------------|--------------------------------|--------------------------------|--------------------------------|--------2-2-----3-3----3h5-5--6-|0-0-3h5-----3h5------5--------6-|
--------------------------------|--------------------------------|--------------------------------|----------------------------3-3-|--------2-2-----3-3----3h5------|0-0-3h5-----3h5------5----------|
Intro--------------------------------|--------------------------------|--------------------------------|---------3-0--------------------|---5p3p0------7-----------5-----|-0------------7--7p5p3--6---6---|
--------------------------------|--------------------------------|--------------------------------|---------3-0--------------------|-0-5p3p0------7-----------5-----|-0------------7--7p5p3--6---6---|
--------------------------------|--------------------------------|--------------------------------|---------3-0--------------------|-0-5p3p0------7-----------5-----|-0------------7--7p5p3--6---6---|
--------------------------------|--------------------------------|--------------------------------|-----------3-0------------------|-----5p3p0----------------------|-0-0------------777666-5-5-55---|pmpm pmpmpmpmpmpmpm
Verse 2---------------------------------|---------------------------------|---------------------------------|---------------------------------| (x4)---------3-3-5-------------------|-0-0-3h5-----5-00-0--3h5p3-3h5p3-|pmpm pmpm
Chorus--------------------------------|--------------------------------|--------------------------------|--------------------------------|--------2-2-----3-3----3h5-5--6-|0-0-3h5-----3h5------5--------6-|
--------------------------------|--------------------------------|--------------------------------|----------------------------3-3-|--------2-2-----3-3----3h5------|0-0-3h5-----3h5------5----------|
--------------------------------|--------------------------------|--------------------------------|--------------------------------|--------2-2-----3-3----3h5-5--6-|0-0-3h5-----3h5------5--------6-|
--------------------------------|--------------------------------|--------------------------------|----------------------------3-3-|--------2-2-----3-3----3h5------|0-0-3h5-----3h5------5----------|
Post-solo or Intro again--------------------------------|--------------------------------|--------------------------------|---------3-0--------------------|-0-5p3p0------------------5-----|-0------------7--7p5p3--6---6---|pm
--------------------------------|--------------------------------|--------------------------------|---------3-0--------------------|-0-5p3p0------7-----------5-----|-0------------7--7p5p3--6---6---|
--------------------------------|--------------------------------|--------------------------------|---------3-0--------------------|-0-5p3p0------7-----------5-----|-0------------7--7p5p3--6---6---|
Solo--------------------------------|--------------------------------|-15p14h15p14h15p14h15p14h15-17--|--------------------------------|--------------------------------|--------------------------------|
--------------------------------|--------------------------------|-17p15--------------------------|-------19-18br-15---------------|--------------------------------|--------------------------------|
--------------------------------|-18b-18p17p15-18b---------------|--------------------------------|--------------------------------|--------------------------------|--------------------------------|
--------------------------------|--18b-17-15----------15---------|------------17-15fb-------------|--------------------------------|--------------------------------|
--------------------------------|--------------------------------|-17p15--------------------------|-------19-18br-17-15------------|---------------------17---------|--------------------------------|
{I could not figure out the rest, I did not plan on tabbing the solo hope the rest of the tab helped you however. :/}
Outro--------------------------------|--------------------------------|--------------------------------|---------3-0--------------------|---5p3p0------7-----------5-----|-0------------7--7p5p3--6---6---|pm
--------------------------------|--------------------------------|--------------------------------|---------3-0--------------------|-0-5p3p0------7-----------5-----|-0------------7--7p5p3--6---6---|
--------------------------------|--------------------------------|--------------------------------|---------3-0--------------------|---5p3p0------7-----------5-----|-0------------7--7p5p3--6---6---|
---------------------------------|---------------------------------|---------------------------------|---------3-0---------------------|---5p3p0---------------------5---|-0------------7-7-7-7p6p5--6---6-|
--------------------------------|--------------------------------|--------------------------------|-----------3-0------------------| (x7)-----5p3p0------7-----------5---|-0-0------------7--7p5p3--6---6-|
--------------------------------|--------------------------------|--------------------------------|---------3-0--------------------|---5p3p0------------------------|-0------------7776665-5-55-0----| pmpmpmpmpmpmpm
Tap to rate this tab
 
# A B C D E F G H I J K L M N O P Q R S T U V W X Y Z