Our Last Night – Into The Future tab ver. 2

I know this is not one hundred percent accurate.. i would appreciate any help on 
this song. Feel free to email me at rosesarebred@yahoo.com


|-----------------------------------------------------||-----------------------------------------------------||-----------------------------------------------------| x2|-----------------------------------------------------||-----------------8--7h8-----7h8------7h8-------------||--3--333-----------------77--------88----------------|
|-----------------------------------------------------||-----------------------------------------------------||-----------------------------------------------------| |-3--333----------------------------------------------||-3--333--------8---7h8-----7h8-------7h8-------------||-3--333----------------77---------88-----------------| ...
|-----------------------------------------------------||-----------------------------------------------------||-----------------------------------------------------| |-3--333----------------------------------------------||-3--333--------8---7h8-----7h8-------7h8-------------||-3--333----------------77---------55-----------------| ...
|-----------------------------------------------------||-----------------------------------------------------| |-3--333----------------------------------------------||-3--333--------8---7h8-----7h8-------7h8-------------||-3--333----------------77---------88-----------------| ...
|-----------------------------------------------------||-----------------------------------------------------||-----------------------------------------------------| |-3--333-------------------------------------3~-------||-3--333--------8---7h8-----7h8-------7h8----3~-------||-3--333----------------77---------55--------3~-------| ...
|-----------------------------------------------------||-----------------------------------------------------||-----------------------------------------------------||---5555--------8888-------10101010-------------------||---5555--------8888-------10101010-------------------||---5555--------8888-------10101010-------------------|
|-----------------------------------------------------||-----------------------------------------------------||-----------------------------------------------------||--8--------------------------------------------------||--8(x16)---------------------------------------------||--8--------------------------------------------------|
|-----------------------------------------------------||-----------------------------------------------------||-----------------------------------------------------||---5555--------8888-------10101010-------------------||---5555--------8888-------10101010-------------------||---5555--------8888-------10101010-------------------|
"She's Standing There"|-----------------------------------------------------||-----------------------------------------------------||-----------------------------------------------------||--3(x16)---------------------------------------------||--3--------------------------------------------------||--3--------------------------------------------------|
."If she wants me Here"|-----------------------------------------------------||-----------------------------------------------------||-----------------------------------------------------||--10----3-----5---------------55----55----55---------||--10----3-----5(x16)----------55----55----55---------||--10----3-----5---------------55----55----55---------| .
(I'm stuck on this part.. all help would be greatly appreciated..)|-------------------------------||---7--------7------------------||-----9-------9-------9---------| (x2)|-------8h7----8h77810----------||-------------------------------||-------------------------------|
"I'm Chasing Back and forth"|-----------------------------------------------------||-----------------------------------------------------||-----------------------------------------------------||--7--------8--------5-------3------------------------||--7(x8)----8(x8)----5(x8)---3(x8)--------------------||--7--------8--------5-------3------------------------|
"Wishing I could see.."|------------------------------------------------------||------------------------------------------------------||------------------------------------------------------||--9-----8-------7----------7777--xxxx--7777--xxxx-8888||--x(x8)-8(x8)---7(x16)-----7777--xxxx--7777--xxxx-8888||--7-----8-------7----------7777--xxxx--7777--xxxx-8888|
(Pause at "If she runs this train") Then:
|-----------------------------------------------------||-----------------------------------------------------||-----------------------------------------------------||---5555--------8888-------10101010-------------------||---5555--------8888-------10101010-------------------||---5555--------8888-------10101010-------------------|
"We would be the"|-----------------------------------------------------||-----------------------------------------------------||-----------------------------------------------------||----3------------------------------------------------||----3(x16)-------------------------------------------||----3------------------------------------------------|
"Only Ones.."|-----------------------------------------------------||-----------------------------------------------------||-----------------------------------------------------||---5555--------8888-------10101010-------------------||---5555--------8888-------10101010-------------------||---5555--------8888-------10101010-------------------|
"I'm Wond-er-ing.." "..Brought us here"|-----------------------------------------------------||-----------------------------------------------------||-----------------------------------------------------||-10---8---7~--7~-------10---8---7~--7~---------------||-10---8---7~--7~-------10---8---7~--7~---------------||-10---8---7~--7~-------10---8---7~--7~---------------|
This part again..|-------------------------------||---7--------7------------------||-----9-------9-------9---------| (x2)|-------8h7----8h77810----------||-------------------------------||-------------------------------|
"I'm Chasing Back and forth"|-----------------------------------------------------||-----------------------------------------------------||-----------------------------------------------------||--7--------8--------5-------3------------------------||--7(x8)----8(x8)----5(x8)---3(x8)--------------------||--7--------8--------5-------3------------------------|
"Wishing I could see.."|---------------------------||---------------------------||---------------------------||--9-----8-------7----------||--x(x8)-8(x8)---7(x8)------||--7-----8-------7----------|
"Where I'll Make a plan"
|-----------------||-----------------||-----------------||--5--------------||--5(x16)---------||--5--------------|
"Wouldnt it be nice.."|-----------------------------------------------------||-----------------------------------------------------||-----------------------------------------------------||-8-----7-----5---------------------------------------||-8(x8)-7(x8)-5(x8)-----7777--xxxx--7777-8888---------||-8-----7-----5---------7777--xxxx--7777-8888---------|
|-----------------------------------------------------||-----------------------------------------------------||-----------------------------------------------------||-----------------------------------------------------||------888--777---555---333---222---333333------------||--777------------------------------------------------|
|-----------------------------------------------------||-----------------------------------------------------||-----------------------------------------------------||-----------------------------------------------------||-----888--777---555---333---222--333-----------------||-777---------------------------------333333----------|
"She keeps me on"|-----------------------------------------------------||-----------------------------------------------------||-----------------------------------------------------||-----------------------------------------------------||------888--777---555---333---222---333333------------||--777------------------------------------------------|
"Seat.. But never fails.."|-----------------------------------------------------||-----------------------------------------------------||-----------------------------------------------------||-----------------------------------------------------||-----888--777---555---333---222-333------------------||-777---------------------------------333333----------|
Breakdown deal.. "She keeps me.."
|-----------------------------------------------------||----------------------5-----555----------------------||----------------------8-----888----------------------||--3---333--3------000---000--------------------------||--3---333--3------000---000--------------------------||--3---333--3------000---000--------------------------| ... ... ...
"On the edge of my seat" "..But never fails" |----------------------------------------------||---------------555----------------5-----555---||---------------888----------------8-----888---||--000--000-000-------------00-000---000-------||--000--000-000-------------00-000---000-------||--000--000-000-------------00-000---000-------| .. ... ... ... ...
|-----------------------------------------------------||----------------------------------5-----555----------||----------------------------------8-----888----------||-000--000--000-------------00-000---000--------------||-000--000--000-------------00-000---000--------------||-000--000--000--7h8p7------00-000---000--------------|
... ...|----------------------------------------------||---------------555----------------5-----555---||---------------888----------------8-----888---||--000--000-000-------------00-000---000-------||--000--000-000-------------00-000---000-------||--000--000-000-------------00-000---000-------| .. ... ... ... ...
|------------------------||------------------------||------------------------||-000--000--000----------||-000--000--000----------||-000--000--000--7h8p7---| .. .. ...
"She's Standing There"|-----------------------------------------------------||-----------------------------------------------------||-----------------------------------------------------||--3(x16)---------------------------------------------||--3--------------------------------------------------||--3--------------------------------------------------|
."If she wants me Here"|------------------------||------------------------||------------------------||--10----3-----5---------||--10----3-----5(x16)----||--10----3-----5---------|
|-------------------------------||---7--------7------------------||-----9-------9-------9---------| (x2)|-------8h7----8h77810----------||-------------------------------||-------------------------------|
"I'm Pacing Back and forth"|-----------------------------------------------------||-----------------------------------------------------||-----------------------------------------------------||--7--------8--------5-------3------------------------||--7(x8)----8(x8)----5(x8)---3(x8)--------------------||--7--------8--------5-------3------------------------|
"Wishing I could see.."|---------------------------||---------------------------||---------------------------||--9-----8-------7----------||--x(x8)-8(x8)---7(x8)------||--7-----8-------7----------|
"Where I'll Make a plan"
|----------------------||----------------------||----------------------||--5---------xxxx------||--5(x16)----xxxx------||--5---------xxxx------|
"Wouldnt it be nice.."|----------------------------------------------------------||----------------------------------------------------------||----------------------------------------------------------||-8-----7-----5--------------------------------------------||-8(x8)-7(x8)-5(x8)-----7777--xxxx--7777-xxxx-8888---------||-8-----7-----5---------7777--xxxx--7777-xxxx-8888---------|
|-----------------------------------------------------||-----------------------------------------------------| |-3--333----------------------------------------------||-3--333--------8---7h8-----7h8-------7h8-------------||-3--333----------------77---------88-----------------| ...i Cant really figure the second part of this out..
then the final breakdown part "She keeps me.."
|-----------------------------------------------------||----------------------5-----555----------------------||----------------------8-----888----------------------||--3---333--3------000---000--------------------------||--3---333--3------000---000--------------------------||--3---333--3------000---000--------------------------| ... ... ...
"On the edge of my seat" "..But never fails" |----------------------------------------------||---------------555----------------5-----555---||---------------888----------------8-----888---||--000--000-000-------------00-000---000-------||--000--000-000-------------00-000---000-------||--000--000-000-------------00-000---000-------| .. ... ... ... ...
|-----------------------------||-----------------------------||-----------------------------||-000--000--000-------------0~||-000--000--000-------------0~||-000--000--000--7h8p7------0~| .. .. ...
Please rate this tab:
x1.0