Our Last Night – Running Of The Clocks tab

SONG: Running The Clocks
BAND: Our Last Night
ALBUM: The Ghosts Among Us
TUNING: Db - Ab - Db - Gb - Bb - Eb
Hey guys enjoy. Hope this is easy to read.
These Our Last Night tabs won't be posted as often as i would like
as I have a band now and it takes a huge chunk out of my life.
But I'll try and put them up as often as I can.

.	=	Palm mute
x	=	Mute
h	=	Hammer on
p	=	Pull off
/\	=	Slide
^	=	Harmonic

Guitar 1 (Right Speaker)-----------------------------------------------------------------------INTRO|----------------------------||----------------------------||-----------7\6--4-4--2-2-2--||--x-4/5-5--x-x--4-4--2-2-2--||--x-4/5-5--5\4--2-2--0-0-0--||--x-4/5-5-------------------|
|-------------------------------||-------------------------------||-----------7\6--4-4--2--11-11--||--x-4/5-5--x-x--4-4--2---x--x--||--x-4/5-5--5\4--2-2--0---9--9--||--x-4/5-5----------------------|
|----------------------------||----------------------------||-----------7\6--4-4--2-2-2--||--x-4/5-5--x-x--4-4--2-2-2--||--x-4/5-5--5\4--2-2--0-0-0--||--x-4/5-5-------------------|
|------------------------------------------||-------------------10-12------------------||--11p9-----------9-------11-9----------9--||-------12-11-7/9--------------12-11h12----||------------------------------------------||------------------------------------------|
|--------------------------------------------------------------------||------------10h12p0------------------10h12p0--14-14-14-15-15-15-15--||--9p0--9h11----------11----9p0--9h11--------------------------------||--------------------------------------------------------------------||--------------------------------------------------------------------||--------------------------------------------------------------------|
|-----------------------------------------------------------------||------------10h12p0-----------------10h12p0--14-14-14-15-15------||--9p0--9h11----------7----9p0--9h11--------------------------11--||-----------------------------------------------------------------||-----------------------------------------------------------------||-----------------------------------------------------------------|
|--0-0-0--||--5-5-5--||--7-7-7--||---------||---------||---------|
VERSE 1|------------------------------------|\|--10---10-10p7---7---5---5-5h7---7--|||-----9---------9-------7-------7----|||------------------------------------|||------------------------------------|||------------------------------------||
|X2|------------------------------------|||--5---5-5h7---7---------------------|||----7-------7-------6---6h7---7-----|||------------------7---7-----7----0--|||---------------------------------0--|||---------------------------------0--|/
|-----------------------------------|\|-----------------------------------|||-----------------------------------|||--0-0-0-0-0-0-0-0-0-0-0-0-0-0-0-0--|||--0-0-0-0-0-0-0-0-0-0-0-0-0-0-0-0--|||--0-0-0-0-0-0-0-0-0-0-0-0-0-0-0-0--||
|X2|-----------------------------------|||-----------------------------------|||-----------------------------------|||--5-5-5-5-5-5-5-5-5-5-5-5-5-5-5-5--|||--5-5-5-5-5-5-5-5-5-5-5-5-5-5-5-5--|||--5-5-5-5-5-5-5-5-5-5-5-5-5-5-5-5--|/
|--------------------||--------------------||--6/7-7-7/9-9-9/11--||--x-x-x-x-x-x-x--x--||--4/5-5-5/7-7-7/-9--||--------------------|
CHORUS|------------------------------------|\|------------------------------------| \|------------------------------------| ||--9-9-9-9-9-9-9-9-9-9-9-9-9-9-9--0--| ||--9-9-9-9-9-9-9-9-9-9-9-9-9-9-9--0--| ||--9-9-9-9-9-9-9-9-9-9-9-9-9-9-9--0--| |
|
|-------------------------------------|||-------------------------------------|||-------------------------------------|||--4/5-5-5-5-5-5-5-5-5-5-5-5-5-5-5-5--|||--4/5-5-5-5-5-5-5-5-5-5-5-5-5-5-5-5--|||--4/5-5-5-5-5-5-5-5-5-5-5-5-5-5-5-5--||
|X2|-----------------------------------| ||-----------------------------------| ||-----------------------------------| ||--0-0-0-0-0-0-0-0-0-0-0-0-0-0-0-0--| ||--0-0-0-0-0-0-0-0-0-0-0-0-0-0-0-0--| ||--0-0-0-0-0-0-0-0-0-0-0-0-0-0-0-0--| |
|
|-----------------------------------| ||-----------------------------------| ||-----------------------------------| ||--2-2-2-2-2-2-2-2-2-2-2-2-2-2-2-2--| /|--2-2-2-2-2-2-2-2-2-2-2-2-2-2-2-2--| /|--2-2-2-2-2-2-2-2-2-2-2-2-2-2-2-2--|/
VERSE 2|------------------------------------|\|--10---10-10p7---7---5---5-5h7---7--|||-----9---------9-------7-------7----|||------------------------------------|||------------------------------------|||------------------------------------||
|X2|------------------------------------|||--5---5-5h7---7---------------------|||----7-------7-------6---6h7---7-----|||------------------7---7-----7----0--|||---------------------------------0--|||---------------------------------0--|/
|-----------------------------------|\|-----------------------------------|||-----------------------------------|||--0-0-0-0-0-0-0-0-0-0-0-0-0-0-0-0--|||--0-0-0-0-0-0-0-0-0-0-0-0-0-0-0-0--|||--0-0-0-0-0-0-0-0-0-0-0-0-0-0-0-0--||
|X2|-----------------------------------|||-----------------------------------|||-----------------------------------|||--5-5-5-5-5-5-5-5-5-5-5-5-5-5-5-5--|||--5-5-5-5-5-5-5-5-5-5-5-5-5-5-5-5--|||--5-5-5-5-5-5-5-5-5-5-5-5-5-5-5-5--|/
|--------------------||--------------------||--6/7-7-7/9-9-9/11--||--x-x-x-x-x-x-x--x--||--4/5-5-5/7-7-7/-9--||--------------------|
CHORUS|------------------------------------|\|------------------------------------| \|------------------------------------| ||--9-9-9-9-9-9-9-9-9-9-9-9-9-9-9--0--| ||--9-9-9-9-9-9-9-9-9-9-9-9-9-9-9--0--| ||--9-9-9-9-9-9-9-9-9-9-9-9-9-9-9--0--| |
|
|-------------------------------------|||-------------------------------------|||-------------------------------------|||--4/5-5-5-5-5-5-5-5-5-5-5-5-5-5-5-5--|||--4/5-5-5-5-5-5-5-5-5-5-5-5-5-5-5-5--|||--4/5-5-5-5-5-5-5-5-5-5-5-5-5-5-5-5--||
|X2|-----------------------------------| ||-----------------------------------| ||-----------------------------------| ||--0-0-0-0-0-0-0-0-0-0-0-0-0-0-0-0--| ||--0-0-0-0-0-0-0-0-0-0-0-0-0-0-0-0--| ||--0-0-0-0-0-0-0-0-0-0-0-0-0-0-0-0--| |
|
|-----------------------------------| ||-----------------------------------| ||-----------------------------------| ||--2-2-2-2-2-2-2-2-2-2-2-2-2-2-2-2--| /|--2-2-2-2-2-2-2-2-2-2-2-2-2-2-2-2--| /|--2-2-2-2-2-2-2-2-2-2-2-2-2-2-2-2--|/
BRIDGE|------------------------------------||------------------------------------||------------------------------------||--9-9--0-0-0-0-0-0-0-0-0-0-0-0-0-0--||--9-9--0-0-0-0-0-0-0-0-0-0-0-0-0-0--||--9-9--0-0-0-0-0-0-0-0-0-0-0-0-0-0--|
pm . . . . . . . . . . . . . .|-------------------------------------||-------------------------------------||----------------------------------^--||--9-9--0-0-0-0-0-0-0-0-0-0-0-0-0--5--||--9-9--0-0-0-0-0-0-0-0-0-0-0-0-0-----||--9-9--0-0-0-0-0-0-0-0-0-0-0-0-0-----|
pm . . . . . . . . . . . . . |--------------------------------------------0-0-0-0-0-0--|\|--------------------------------------------5-5-5-5-5-5--|||--------------7-7/11-11-------------^-^-----7-7-7-7-7-7--||X2|--9-9--0-0-0--x-x--x--x--0-0-0-0-0--5-5--0---------------|||--9-9--0-0-0--5-5/-9--9--0-0-0-0-0-------0---------------|||--9-9--0-0-0-------------0-0-0-0-0-------0---------------|/
pm . . . . . . . . .|-----------------------------0-0-0-------------------||-----------------------------5-5-5--7p0~~~~-0-----0--||----------------------------------------6h7---6h7----||--5-5-5-5--x-x-x-x--4-4-4-4--------------------------||--4-4-4-4--x-x-x-x--5-5-5-5--------------------------||--5-5-5-5--x-x-x-x--4-4-4-4--------------------------|
|-----------------10-9----------------------|\ |--7p0-----0h10p0------12-10p0--10h12-------| \|------6h7----------------------------9h11--| \|-------------------------------------------| \|-------------------------------------------| ||-------------------------------------------| |
|X2|-----------------10-9-------------------------|||--7p0-----0h10p0------12-10p0-10h12-12-12-12--|||------6h7-------------------------------------|||----------------------------------------------|||----------------------------------------------|||----------------------------------------------|/
|----------||--G-------||--T-------||--R-------||----------||--2-------|
|-----------------10-9----------------------|\ |--7p0-----0h10p0------12-10p0--10h12-------| \|------6h7----------------------------9h11--| \|-------------------------------------------| \|-------------------------------------------| ||-------------------------------------------| |
|X2|-----------------10-9-------------------------|||--7p0-----0h10p0------12-10p0-10h12-12-12-12--|||------6h7-------------------------------------|||----------------------------------------------|||----------------------------------------------|||----------------------------------------------|/
|--------------------------------------||--------------------------------------||--------------------------------------||--9--0--9--0------------0--0--0--7-7--||--9--0--9--0--7---------4--4--4--7-7--||--9--0--9--0-----2--5------------7-7--|
pm . .|----------------------------------------||----------------------------------------||----------------------------------------||--9--0--9--0------------0--0--0--7-7-7--||--9--0--9--0--7---------4--4--4--7-7-7--||--9--0--9--0-----2--5------------7-7-7--|
pm . .|-------------------------------------------||-------------------------------------------||-------------------------------------------||--0-0--9--0--9--0------------0--0--0--7-7--||--0-0--9--0--9--0--5---------4--4--4--7-7--||--0-0--9--0--9--0-----2--5------------7-7--|
pm . . . .|----------------------------------------||----------------------------------------||----------------------------------------||--9--0--9--0------------0--0--0--7-7-7--||--9--0--9--0--5---------4--4--4--7-7-7--||--9--0--9--0-----2--5------------7-7-7--|
pm . .|---------------------------------||---------------------------------||--------------------------9-9-9--||----------4-2-------4-2---x-x-x--||--------------5---------5/7-7-7--||--2--4-5---------2---------------|
CHORUS 2|------------------------------------||------------------------------------||------------------------------------||--9-9-9-9-9-9-9-9-9-9-9-9-9-9-9--0--||--9-9-9-9-9-9-9-9-9-9-9-9-9-9-9--0--||--9-9-9-9-9-9-9-9-9-9-9-9-9-9-9--0--|
|-------------------------------------||-------------------------------------||-------------------------------------||--4/5-5-5-5-5-5-5-5-5-5-5-5-5-5-5-5--||--4/5-5-5-5-5-5-5-5-5-5-5-5-5-5-5-5--||--4/5-5-5-5-5-5-5-5-5-5-5-5-5-5-5-5--|
|-----------------------------------||-----------------------------------||-----------------------------------||--0-0-0-0-0-0-0-0-0-0-0-0-0-0-0-0--||--0-0-0-0-0-0-0-0-0-0-0-0-0-0-0-0--||--0-0-0-0-0-0-0-0-0-0-0-0-0-0-0-0--|
|-----------------------------------||-----------------------------------||-----------------------------------||--2-2-2-2-2-2-2-2-2-2-2-2-2-2-2-2--||--2-2-2-2-2-2-2-2-2-2-2-2-2-2-2-2--||--2-2-2-2-2-2-2-2-2-2-2-2-2-2-2-2--|
|------------------------------------||------------------------------------||------------------------------------||--9-9-9-9-9-9-9-9-9-9-9-9-9-9-9--0--||--9-9-9-9-9-9-9-9-9-9-9-9-9-9-9--0--||--9-9-9-9-9-9-9-9-9-9-9-9-9-9-9--0--|
|-------------------------------------||-------------------------------------||-------------------------------------||--4/5-5-5-5-5-5-5-5-5-5-5-5-5-5-5-5--||--4/5-5-5-5-5-5-5-5-5-5-5-5-5-5-5-5--||--4/5-5-5-5-5-5-5-5-5-5-5-5-5-5-5-5--|
|-----------------------------------||-----------------------------------||-----------------------------------||--0-0-0-0-0-0-0-0-0-0-0-0-0-0-0-0--||--0-0-0-0-0-0-0-0-0-0-0-0-0-0-0-0--||--0-0-0-0-0-0-0-0-0-0-0-0-0-0-0-0--|
|-----------------------------------||-----------------------------------||-----------------------------------||-----------------------------------||-----------------------------------||--2-2-2-2-2-2-2-2-2-2-2-2-2-2-2-2--|
OUTRO|------------------------------------||------------------------------------||------------------------------------||--9-9--0-0-0-0-0-0-0-0-0-0-0-0-0-0--||--9-9--0-0-0-0-0-0-0-0-0-0-0-0-0-0--||--9-9--0-0-0-0-0-0-0-0-0-0-0-0-0-0--|
pm . . . . . . . . . . . . . .|---------------------------------F----||-----------------------------P---E----||-----------------------------A-F-E-B--||--9-9--0-0-0-0-0-0-0-0-0-0-0-U-O-D-A--||--9-9--0-0-0-0-0-0-0-0-0-0-0-S-R---C--||--9-9--0-0-0-0-0-0-0-0-0-0-0-E-----K--|
pm . . . . . . . . . . .|---------------------------------------||---------------------------------------||---10-10-------------------------------||---12-12--0-0-0-0-0-0-0-0-0-0-0-0-0-0--||----8--8--0-0-0-0-0-0-0-0-0-0-0-0-0-0--||----8--8--0-0-0-0-0-0-0-0-0-0-0-0-0-0--|
pm . . . . . . . . . . . . . .|-------------------------------------------||-------------------------------------------||---10-10-----------------------------------||---12-12--0-0-0-0-0-0-0-----0-0-0-----0-0--||----8--8--0-0-0-0-0-0-0-----0-0-0-----0-0--||----8--8--0-0-0-0-0-0-0--0--0-0-0--0--0-0--|
pm . . . . . . . . . . . .|---------------------------------------||---------------------------------------||---10-10-------------------------------||---12-12--0-0-0-0-0-0-0-0-0-0-0-0-0-0--||----8--8--0-0-0-0-0-0-0-0-0-0-0-0-0-0--||----8--8--0-0-0-0-0-0-0-0-0-0-0-0-0-0--|
pm . . . . . . . . . . . . . .|--------------------------------------------||--------------------------------------------||---10-10------------------------------------||---12-12--0-0-0-0-0-0-0-----0-0-0-----------||----8--8--0-0-0-0-0-0-0-----0-0-0-----------||----8--8--0-0-0-0-0-0-0--0--0-0-0--0--0--0--|pm . . . . . . . . . .
Guitar 2 (Left Speaker)-----------------------------------------------------------------------INTRO|----------------------------||----------------------------||-----------7\6--7-7--6-6-6--||--x-4/5-5--x-x--x-x--x-x-x--||--x-4/5-5--5\4--5-5--4-4-4--||--x-4/5-5-------------------|
|-------------------------------||-------------------------------||-----------7\6--7-7--6--11-11--||--x-4/5-5--x-x--x-x--x---x--x--||--x-4/5-5--5\4--5-5--4---9--9--||--x-4/5-5----------------------|
|----------------------------||----------------------------||-----------7\6--7-7--6-6-6--||--x-4/5-5--x-x--x-x--x-x-x--||--x-4/5-5--5\4--5-5--4-4-4--||--x-4/5-5-------------------|
|------------------------------------||------------------------------------||------------------------------------||--0-0-0-0-0-0-0-0--2-2-2-2-2-2-2-2--||--0-0-0-0-0-0-0-0--2-2-2-2-2-2-2-2--||--0-0-0-0-0-0-0-0--2-2-2-2-2-2-2-2--|
|---------------------------------|\|---------------------------------| \|---------------------------------| ||--------x-x-x-x----x-----x-x--0--| ||--------x-x-x-x----x-----x-x--0--| ||--4--5--x-x-x-x--0-x-0---x-x--0--| |
|X2|----------------------------------|||----------------------------------|||-----------------4-4-4-4--6-6-----|||--------x-x-x-x--4-4-4-4--6-6--0--|||--------x-x-x-x--2-2-2-2--4-4--0--|||--4--5--x-x-x-x----------------0--|/
|---------||---------||---------||--0-0-0--||--0-0-0--||--0-0-0--|
VERSE 1|------------------------------|\|----G-------------------------|||----T-------------------------||X2|----R------------------0-0-0--|||-----------------------0-0-0--|||----1------------------0-0-0--|/
|-----------------------------------||-----------------------------------||--7-7-7-7-7-7-7-7-7-7-7-7-7-7-7-7--||--x-x-x-x-x-x-x-x-x-x-x-x-x-x-x-x--||--5-5-5-5-5-5-5-5-5-5-5-5-5-5-5-5--||-----------------------------------|
|------------------------------------||------------------------------------||--6-6-6-6-6-6-6-6--7-7-7-7-7-7-7-7--||--x-x-x-x-x-x-x-x--x-x-x-x-x-x-x-x--||--4-4-4-4-4-4-4-4--5-5-5-5-5-5-5-5--||------------------------------------|
|---------------------------------------------------||---------------------------------------------------||--14-14-14-14-14-14-14-14-14-14-14-14-14-14-14-14--||---x--x--x--x--x--x--x--x--x--x--x--x--x--x--x--x--||--12-12-12-12-12-12-12-12-12-12-12-12-12-12-12-12--||---------------------------------------------------|
|---------------------------------------------------||---------------------------------------------------||--11-11-11-11-11-11-11-11-11-11-11-11-11-11-11-11--||---x--x--x--x--x--x--x--x--x--x--x--x--x--x--x--x--||---9--9--9--9--9--9--9--9--9--9--9--9--9--9--9--9--||---------------------------------------------------|
|--------------------||--------------------||--6/7-7-7/9-9-9/11--||--x-x-x-x-x-x-x--x--||--4/5-5-5/7-7-7/-9--||--------------------|
CHORUS|--14-------14-------14-------14--------14-15-14-----|\|-----15-12----15-12----15-12----15-12-----------15--| \|----------------------------------------------------| ||----------------------------------------------------| ||----------------------------------------------------| ||----------------------------------------------------| |
|
|-----14-------14-------12-------12-------------------|||--------15-------15-------15-------15--14h15p14------|||--14-------14-------12-------12------------------14--|||-----------------------------------------------------|||-----------------------------------------------------|||-----------------------------------------------------||
|X2|---------------------------------------------------| ||---------------------------------------------------| ||--11-11-11-11-11-11-11-11-11-11-11-11-11-11-11-11--| ||---x--x--x--x--x--x--x--x--x--x--x--x--x--x--x--x--| ||---9--9--9--9--9--9--9--9--9--9--9--9--9--9--9--9--| ||---------------------------------------------------| |
/|------------------------------------| /|------------------------------------| /|--6/7--7-7/9-9-9-9-9-9-9-9-9-9-9-9--| /|--x-x--x-x-x-x-x-x-x-x-x-x-x-x-x-x--| /|--4/5--5-5/7-7-7-7-7-7-7-7-7-7-7-7--| /|------------------------------------|/
VERSE 2|------------------------------|\|----G-------------------------|||----T-------------------------||X2|----R------------------0-0-0--|||-----------------------0-0-0--|||----1------------------0-0-0--|/
|-----------------------------------||-----------------------------------||--7-7-7-7-7-7-7-7-7-7-7-7-7-7-7-7--||--x-x-x-x-x-x-x-x-x-x-x-x-x-x-x-x--||--5-5-5-5-5-5-5-5-5-5-5-5-5-5-5-5--||-----------------------------------|
|------------------------------------||------------------------------------||--6-6-6-6-6-6-6-6--7-7-7-7-7-7-7-7--||--x-x-x-x-x-x-x-x--x-x-x-x-x-x-x-x--||--4-4-4-4-4-4-4-4--5-5-5-5-5-5-5-5--||------------------------------------|
|---------------------------------------------------||---------------------------------------------------||--14-14-14-14-14-14-14-14-14-14-14-14-14-14-14-14--||---x--x--x--x--x--x--x--x--x--x--x--x--x--x--x--x--||--12-12-12-12-12-12-12-12-12-12-12-12-12-12-12-12--||---------------------------------------------------|
|---------------------------------------------------||---------------------------------------------------||--11-11-11-11-11-11-11-11-11-11-11-11-11-11-11-11--||---x--x--x--x--x--x--x--x--x--x--x--x--x--x--x--x--||---9--9--9--9--9--9--9--9--9--9--9--9--9--9--9--9--||---------------------------------------------------|
|--------------------||--------------------||--6/7-7-7/9-9-9/11--||--x-x-x-x-x-x-x--x--||--4/5-5-5/7-7-7/-9--||--------------------|
CHORUS|--14-------14-------14-------14--------14-15-14-----|\|-----15-12----15-12----15-12----15-12-----------15--| \|----------------------------------------------------| ||----------------------------------------------------| ||----------------------------------------------------| ||----------------------------------------------------| |
|
|-----14-------14-------12-------12-------------------|||--------15-------15-------15-------15--14h15p14------|||--14-------14-------12-------12------------------14--|||-----------------------------------------------------|||-----------------------------------------------------|||-----------------------------------------------------||
|X2|---------------------------------------------------| ||---------------------------------------------------| ||--11-11-11-11-11-11-11-11-11-11-11-11-11-11-11-11--| ||---x--x--x--x--x--x--x--x--x--x--x--x--x--x--x--x--| ||---9--9--9--9--9--9--9--9--9--9--9--9--9--9--9--9--| ||---------------------------------------------------| |
/|-----------------------------------| /|-----------------------------------| /|-----------------------------------| /|-----------------------------------| /|-----------------------------------| /|--2-2-2-2-2-2-2-2-2-2-2-2-2-2-2-2--|/
BRIDGE|-----------------------------------||-----------------------------------||--^---^---^---^---^---^---^---^----||--5-^-5-^-5-^-5-^-5-^-5-^-5-^-5-^--||----9---9---9---9---9---9---9---9--||-----------------------------------|
|---------------------------------||---------------------------------||--^---^---^---^---^---^---^---^--||--5-^-5-^-5-^-5-^-5-^-5-^-5-^-5--||----9---9---9---9---9---9---9----||---------------------------------|
|--------------------------------------------0-0-0-0-0-0--|\|--------------------------------------------5-5-5-5-5-5--|||--------------7-7/11-11---------------------7-7-7-7-7-7--||X2|--9-9--0-0-0--x-x--x--x--0-0-0-0-0--^-^--0---------------|||--9-9--0-0-0--5-5/-9--9--0-0-0-0-0--9-9--0---------------|||--9-9--0-0-0-------------0-0-0-0-0-------0---------------|/
pm . . . . . . . . .|-----------------------------0-0-0-------------------||-----------------------------0-0-0-----G-------------||-----------------------------6h7-7-----T-------------||--5-5-5-5--x-x-x-x--4-4-4-4------------R-------------||--4-4-4-4--x-x-x-x--5-5-5-5--------------------------||--5-5-5-5--x-x-x-x--4-4-4-4------------1-------------|
|---------------------------------------||---------------------------------------||--4-4-4-4-4-4--7-7--4-4-4-4--11-11-11--||--x-x-x-x-x-x--x-x--x-x-x-x---x--x--x--||--2-2-2-2-2-2--5-5--2-2-2-2---9--9--9--||---------------------------------------|
|------------------------------------||------------------------------------||--4-4-4-4-4-4--7-7--4-4-4-4--9-9-9--||--x-x-x-x-x-x--x-x--x-x-x-x--x-x-x--||--2-2-2-2-2-2--5-5--2-2-2-2--7-7-7--||------------------------------------|
|---------------------------------------||---------------------------------------||--4-4-4-4-4-4--7-7--4-4-4-4--11-11-11--||--x-x-x-x-x-x--x-x--x-x-x-x---x--x--x--||--2-2-2-2-2-2--5-5--2-2-2-2---9--9--9--||---------------------------------------|
|--------------------------------------------------||--------------------------------------------------||--4-4-4--14-14-14--11-11-11-11-11-11-11-11-11-11--||--x-x-x---x--x--x---x--x--x--x--x--x--x--x--x--x--||--2-2-2--12-12-12---9--9--9--9--9--9--9--9--9--9--||--------------------------------------------------|
|-------------------||-------------------||--4-4-4-4-4-4-4-4--||--x-x-x-x-x-x-x-x--||--2-2-2-2-2-2-2-2--||-------------------|
|---------------------------------------||---------------------------------------||--4-4-4-4-4-4--7-7--4-4-4-4--11-11-11--||--x-x-x-x-x-x--x-x--x-x-x-x---x--x--x--||--2-2-2-2-2-2--5-5--2-2-2-2---9--9--9--||---------------------------------------|
|------------------------------------||------------------------------------||--4-4-4-4-4-4--7-7--4-4-4-4--9-9-9--||--x-x-x-x-x-x--x-x--x-x-x-x--x-x-x--||--2-2-2-2-2-2--5-5--2-2-2-2--7-7-7--||------------------------------------|
|---------------------------------------||---------------------------------------||--4-4-4-4-4-4--7-7--4-4-4-4--11-11-11--||--x-x-x-x-x-x--x-x--x-x-x-x---x--x--x--||--2-2-2-2-2-2--5-5--2-2-2-2---9--9--9--||---------------------------------------|
|--------------------------------------------------||--------------------------------------------------||--4-4-4--14-14-14--11-11-11-11-11-11-11-11-11-11--||--x-x-x---x--x--x---x--x--x--x--x--x--x--x--x--x--||--2-2-2--12-12-12---9--9--9--9--9--9--9--9--9--9--||--------------------------------------------------|
|--------------------------------------||--------------------------------------||--4-----4------------------------2-2--||--4--0--4--0------------0--0--0--2-2--||--2--0--2--0--7---------4--4--4--0-0--||-----0-----0-----2--5-----------------|
pm . .|----------------------------------------||----------------------------------------||--4-----4------------------------2-2-2--||--4--0--4--0------------0--0--0--2-2-2--||--2--0--2--0--7---------4--4--4--0-0-0--||-----0-----0-----2--5-------------------|
pm . .|-------------------------------------------||-------------------------------------------||-------------------------------------------||--0-0-----0-----0--4---------2--2--2--0-0--||--0-0--5--0--5--0--------------------------||--0-0-----0-----0-----2--5-----------------|
pm . . . .|----------------------------------------||----------------------------------------||----------------------------------------||-----0-----0--4---------2--2--2--0-0-0--||--5--0--5--0----------------------------||-----0-----0-----2--5-------------------|
pm . .|---------------------------------||---------------------------------||--------------------------9-9-9--||----------4-2-------4-2---x-x-x--||--------------5---------5/7-7-7--||--2--4-5---------2---------------|
CHORUS 2|--14-------14-------14-------14--------14-15-14-----||-----15-12----15-12----15-12----15-12-----------15--||----------------------------------------------------||----------------------------------------------------||----------------------------------------------------||----------------------------------------------------|
|-----14-------14-------12-------12-------------------||--------15-------15-------15-------15--14h15p14------||--14-------14-------12-------12------------------14--||-----------------------------------------------------||-----------------------------------------------------||-----------------------------------------------------|
|---------------------------------------------------||---------------------------------------------------||--11-11-11-11-11-11-11-11-11-11-11-11-11-11-11-11--||---x--x--x--x--x--x--x--x--x--x--x--x--x--x--x--x--||---9--9--9--9--9--9--9--9--9--9--9--9--9--9--9--9--||---------------------------------------------------|
|------------------------------------||------------------------------------||--6/7--7-7/9-9-9-9-9-9-9-9-9-9-9-9--||--x-x--x-x-x-x-x-x-x-x-x-x-x-x-x-x--||--4/5--5-5/7-7-7-7-7-7-7-7-7-7-7-7--||------------------------------------|
|--14-------14-------14-------14--------14-15-14-----||-----15-12----15-12----15-12----15-12-----------15--||----------------------------------------------------||----------------------------------------------------||----------------------------------------------------||----------------------------------------------------|
|-----14-------14-------12-------12-------------------||--------15-------15-------15-------15--14h15p14------||--14-------14-------12-------12------------------14--||-----------------------------------------------------||-----------------------------------------------------||-----------------------------------------------------|
|---------------------------------------------------||---------------------------------------------------||--11-11-11-11-11-11-11-11-11-11-11-11-11-11-11-11--||---x--x--x--x--x--x--x--x--x--x--x--x--x--x--x--x--||---9--9--9--9--9--9--9--9--9--9--9--9--9--9--9--9--||---------------------------------------------------|
|-----------------------------------||-----------------------------------||-----------------------------------||-----------------------------------||-----------------------------------||--2-2-2-2-2-2-2-2-2-2-2-2-2-2-2-2--|
OUTRO|----------------------------------||----------------------------------||-^---^---^---^---^---^---^---^----||-5-^-5-^-5-^-5-^-5-^-5-^-5-^-5-^--||---9---9---9---9---9---9---9---9--||----------------------------------|
|---------------------------------F-----||-----------------------------P---E-----||--^---^---^---^---^---^---^--A-F-E--B--||--5-^-5-^-5-^-5-^-5-^-5-^-5--U-O-D--A--||----9---9---9---9---9---9----S-R----C--||-----------------------------E------K--|
|---------------------------------------||---------------------------------------||---10-10-------------------------------||---12-12--0-0-0-0-0-0-0-0-0-0-0-0-0-0--||----8--8--0-0-0-0-0-0-0-0-0-0-0-0-0-0--||----8--8--0-0-0-0-0-0-0-0-0-0-0-0-0-0--|
pm . . . . . . . . . . . . . .|-------------------------------------------||-------------------------------------------||---10-10-----------------------------------||---12-12--0-0-0-0-0-0-0-----0-0-0-----0-0--||----8--8--0-0-0-0-0-0-0-----0-0-0-----0-0--||----8--8--0-0-0-0-0-0-0--0--0-0-0--0--0-0--|
pm . . . . . . . . . . . .|---------------------------------------||---------------------------------------||---10-10-------------------------------||---12-12--0-0-0-0-0-0-0-0-0-0-0-0-0-0--||----8--8--0-0-0-0-0-0-0-0-0-0-0-0-0-0--||----8--8--0-0-0-0-0-0-0-0-0-0-0-0-0-0--|
pm . . . . . . . . . . . . . .|--------------------------------------------||--------------------------------------------||---10-10------------------------------------||---12-12--0-0-0-0-0-0-0-----0-0-0-----------||----8--8--0-0-0-0-0-0-0-----0-0-0-----------||----8--8--0-0-0-0-0-0-0--0--0-0-0--0--0--0--|pm . . . . . . . . . .
Please rate this tab:
x1.0