Our Last Night - Mouth Machine Gun tab version 1

This probably isnt  one hundered percent accurate, but it sounded good to me.
Question, contact me at rosesarebred@yahoo.com
thanks:)
(Also i play this in drop c, but i think they play in drop d.)

|-------------------------------------------------------------||-101010------------------------101010--131313----------------||--------101010-999--101010--99-----------------12121212------| (x2)|-------------------------------------------------------------||-------------------------------------------------------------||-------------------------------------------------------------|
|-------------------------------------------------------------||-------------------------------------------------------------||-------------------------------------------------------------||-------------------------------------------------------------||-------------------------------------------------------------||---00000-----333333------555555555555555---------------------|
|-------------------------------------------------------------||-------------------------------------------------------------||-------------------------------------------------------------||-------------------------------------------------------------||-------------------------------------------------------------||--00000-----333333-----55555555------------------------------|
|--------------------------------------------------------------||--------------------------------------------------------------||---777777---99999-----10101010--------------------------------||---//////---/////-----//////----------------------------------||---555555---77777-----888888----------------------------------||--------------------------------------------------------------|
|-------------------------------------------------------------||-------------------------------------------------------------||---777777---99999-----666---777------------------------------||---//////---/////-----///---///------------------------------||---555555---77777-----444---555------------------------------||-------------------------------------------------------------|
(Chorus)|-------------------------------------------------------------||-------------------------------------------------------------||---777777---99999-----10101010----666666---------------------||---//////---/////-----//////-----///////---------------------| (x2)|---555555---77777-----888888-----4444444---------------------||-------------------------------------------------------------|
|--------------------------------------------------------------||--------------------------------------------------------------||--------------------------------------------------------------||--------------------------------------------------------------||-------------3h5---------3h5---------------3h5---------3h5----||-000----3h5-------00-3h5-------000--0-3-5------00--3h5--------| ... .. ... ..
|-------------------------------------------------------------||-------------------------------------------------------------||----------13--15p12-----------------15-17p14-----------------||--12--15------------13-12----14--17----------15-14-----------||-------------------------------------------------------------||-------------------------------------------------------------|
|-------------------------------------------------------------||-------------------------------------------------------------||-------------------------------------------------------------||-000--0-0-0-0---555--5-5-5-5---888---8-8-8-8--888--8-8-8-8---| (x2)|-000--0-0-0-0---555--5-5-5-5---888---8-8-8-8--888--8-8-8-8---||-000--0-0-0-0---555--5-5-5-5---888---8-8-8-8--888--8-8-8-8---|
|--------------------------------------------------------------||--------------------------------------------------------------||---777777---99999-----10101010--------------------------------||---//////---/////-----//////----------------------------------||---555555---77777-----888888----------------------------------||--------------------------------------------------------------|
|-------------------------------------------------------------||-------------------------------------------------------------||---777777---99999-----666---777------------------------------||---//////---/////-----///---///------------------------------||---555555---77777-----444---555------------------------------||-------------------------------------------------------------|
(Chorus)|-------------------------------------------------------------||-------------------------------------------------------------||---777777---99999-----10101010----666666---------------------||---//////---/////-----//////-----///////---------------------| (x2)|---555555---77777-----888888-----4444444---------------------||-------------------------------------------------------------|
|-------------------------------------------------------------||-------------------------------------------------------------||---777777---99999---101010--666666---------------------------||---//////---/////---//////--//////---------------------------||---555555---77777---888888--444444---------------------------||-------------------------------------------------------------|
|--------------------------------------------------------------||--------------------------------------------------------------||---777777---99999-----1212121212----141414141414--------------||---//////---/////-----//////////----////////////--------------||---555555---77777-----1010101010----121212121212--------------||--------------------------------------------------------------|
|--------------------------------------------------------------------------||--------------------------------------------------------------------------||--------------------------------------------------------------------------||-----------------------------------------------------------------55--5555-||--5-------5-------------5----585------------8----8---------------55--5555-||------000---000-6-000-6----0--------00--6/8---00----00-8-00-8----55--5555-|
... ... ... . .. .. .. ..|---------------------------------------------------------------||---------------------------------------------------------------||---------------------------------3-------3----3----------------||-5------5---------5----585--5/3--------------------------------||-------------------------------------000---00---00-0-000--0----||----000---6--000-6--0------------------------------------------| ... ... . ... .. .. ...
(repeat two times and on last one)
|---------------------||---------------------||---------------------||---------------------||--0--00---0--00--00--||--0--00---0--00--00--| .. ..
|---------------------------------------------------------------||---------------------------------------------------------------||---------------------------------3-------3----3----------------||-5------5---------5----585--5/3--------------------------------||-------------------------------------000---00---00-0-000--0----||----000---6--000-6--0------------------------------------------| ... ... . ... .. .. ...
|--------------------------------------------------------------------||-------------------------------------------------101010---888-------||----------777---1010101010---9999-----------777----------------777--||------888-------------------------------888-------------------------| (x2)|--888---------------------------------------------------------------||--------------------------------------------------------------------|
Second time end on|------|--7*--|--7*--|------||------||------|
|-------------------------------------------------------------||-------------------------------------------------------------||---777777---99999-----10101010----666666---------------------||---//////---/////-----//////-----///////---------------------| (x2)|---555555---77777-----888888-----4444444---------------------||-------------------------------------------------------------|
|-------------------------------------------------------------||-------------------------------------------------------------||-------------------------------------------------------------||-------------------------------------------------------------||-------------------------------------------------------------||---0000000---33333333---88888888---77777777------------------|
|-------------------------------------------------------------||-------------------------------------------------------------||-------------------------------------------------------------||-------------------------------------------------------------||-------------------------------------------------------------||---0000000---33333333---8888888888888888888------------------|
|-------------------------------------------------------------||-------------------------------------------------------------||---777777---99999-----10101010----666666---------------------||---//////---/////-----//////-----///////---------------------| (x2)|---555555---77777-----888888-----4444444---------------------||-------------------------------------------------------------|
|-------------------------------------------------------------||-------------------------------------------------------------||-------------------------------------------------------------||-------------------------------------------------------------||-------------------------------------------------------------||---0000000---33333333---88888888---77777777------------------|
|-------------------------------------------------------------||-------------------------------------------------------------||-------------------------------------------------------------||-------------------------------------------------------------||-------------------------------------------------------------||---0000000---33333333---8888888888--121212121212-------------|
|-------------------------------------------------------------||-------------------------------------------------------------||-------------------------------------------------------------||-------------------------------------------------------------||-------------------------------------------------------------||---0000000---33333333---88888888---77777777------------------|
|-------------------------------------------------------------||-------------------------------------------------------------||-------------------------------------------------------------| (x2)|-------------------------------------------------------------||-------------------------------------------------------------||---8-00-8-00-8-00-8-0000-10-00-10-00-10-00-8888--------------|
|-------------------------------------------------------------||-------------------------------------------------------------||-------------------------------------------------------------||-------------------------------------------------------------||-------------------------------------------------------------||---0000000---33333333---88888888---77777777------------------|
|-------------------------------------||-------------------------------------||-------------------------------------||-------------------------------------||---0-7-8-1010-7-8-0------------------||---0-7-8-1010-7-8-0------------------|
Tap to rate this tab
 
# A B C D E F G H I J K L M N O P Q R S T U V W X Y Z