Outbreak - No One Cares tab

standard tuning
album-you make us sick
bridge nine records
www.outbreakhc.com
www.myspace.com/outbreak


---------------------------------------------------------|---------------------------------------------------------|---------------------------------------------------------|-2-2-2-2-2-2-2-2-8-8-8-7-5-2-2-2-2-2-2-2-2-7-7-7-8-8-8-8-|-2-2-2-2-2-2-2-2-8-8-8-7-5-2-2-2-2-2-2-2-2-7-7-7-8-8-8-8-|-0-0-0-0-0-0-0-0-6-6-6-5-3-0-0-0-0-0-0-0-0-5-5-5-6-6-6-6-|
-----------------------------------------------------------|-----------------------------------------------------------|-------------------------------------------3-3-3-3-3-3-3-3-|-2-2-2-2-2-2-2-2-8-8-8-7-5-3-3-3-3-3-3-3-3-3-3-3-3-3-3-3-3-|-2-2-2-2-2-2-2-2-8-8-8-7-5-3-3-3-3-3-3-3-3-1-1-1-1-1-1-1-1-|-0-0-0-0-0-0-0-0-6-6-6-5-3-1-1-1-1-1-1-1-1-----------------|
-----------------------------------------------------------------|-----------------------------------------------------------------|-----------------------------------------------------------------|-2-2-2-2-2-2-2-2-8-8-8-8-8-8-8-8-2-2-2-2-2-2-2-2-5-5-5-5-5-5-5-5-|-2-2-2-2-2-2-2-2-8-8-8-8-8-8-8-8-2-2-2-2-2-2-2-2-5-5-5-5-5-5-5-5-|-0-0-0-0-0-0-0-0-6-6-6-6-6-6-6-6-0-0-0-0-0-0-0-0-3-3-3-3-3-3-3-3-|
-----------------------------------------------------------------|-----------------------------------------------------------------|-----------------------------------------------------------------|-2-2-2-2-2-2-2-2-8-8-8-8-8-8-8-8-5-5-5-5-5-5-5-5-3-3-3-3-3-3-3-3-|-2-2-2-2-2-2-2-2-8-8-8-8-8-8-8-8-5-5-5-5-5-5-5-5-3-3-3-3-3-3-3-3-|-0-0-0-0-0-0-0-0-6-6-6-6-6-6-6-6-3-3-3-3-3-3-3-3-1-1-1-1-1-1-1-1-|
--------------------------------------------------|--------------------------------------------------|-----3~------5~--3~-------------------------------|-2~--3~--2~--5~--3~-------------------------------|-2~--1~--2~--3~--1~-------------------------------|-0~------0~---------------------------------------|
--------------------------------------------------|--------------------------------------------------|-----3~------5~--3-3-3-3--------------------------|-2~--3~--2~--5~--3-3-3-3--------------------------|-2~--1~--2~--3~--1-1-1-1--------------------------|-0~------0~---------------------------------------|
--------------------------------------------------|--------------------------------------------------|--------------------------------------------------|-2-----2-2-2-2-----guitar two>--------------------|-2-x24-2-2-2-2-----------------1~-----------------|-0-----0-0-0-0------------------------------------| .
--------------------------------------------------|--------------------------------------------------|--------------------------------------------------|-2-2-2-2-2-2-2-2-5-5-5-5-5-6-3--x4----------------|-2-2-2-2-2-2-2-2-5-5-5-5-5-6-3--------------------|-0-0-0-0-0-0-0-0-3-3-3-3-3-4-1--------------------|
--------------------------------------------------|--------------------------------------------------|--------------------------------------------------|-2--2--2--2-5-5-5-5-5-6-3--x4--2~-----------------|-2--2--2--2-5-5-5-5-5-6-3------2~-----------------|-0--0--0--0-3-3-3-3-3-4-1------0~-----------------|
Tap to rate this tab
 
# A B C D E F G H I J K L M N O P Q R S T U V W X Y Z