Overkill - Fear His Name tab

                                Fear His Name
                                  Overkill
                                          
E||---------------------------------------|B||---------------------------------------|G||*--------------------------------------|D||*-----------5--4--2--4--2-----2--------|A||---------------------------5-----5--3--|E||---0--0--0-----------------------------|
2x -------------------------------------||--------------------------------------|-------------------------------------||--------------------------------------|-----------------------------2~-----*||--------------------------------------|-----------5--4--2-----2--5---------*||-----------5--4--2--4--2-----2--------|--------------------5----------------||--------------------------5-----5--3--|--0--0--0----------------------------||--0--0--0-----------------------------|
------------------------------------|--------------------------------------|------------------------------------|--------------------------------------|-----------------------------2~-----|--------------------------------------|-----------5--4--2-----2--5---------|-----------5--4--2--4--2-----2--------|--------------------5---------------|--------------------------5-----5--3--|--0--0--0---------------------------|--0--0--0-----------------------------|
------------------------------------|--------------------------------------|------------------------------------|--------------------------------------|-----------------------------2~-----|--------------------------------------|-----------5--4--2-----2--5---------|-----------5--4--2--4--2-----2--------|--------------------5---------------|--------------------------5-----5--3--|--0--0--0---------------------------|--0--0--0-----------------------------|
------------------------------------|--------------------------------------|------------------------------------|--------------------------------------|-----------------------------2------|--------------------------------------|-----------5--4--2-----2--5---------|-----------5--4--2--4--2-----2--------|--------------------5---------------|--------------------------5-----5--3--|--0--0--0---------------------------|--0--0--0-----------------------------|
------------------------------------|--------------------------------------|------------------------------------|--------------------------------------|-----------------------------4~-----|--------------------------------------|-----------5--4--2-----2--5---------|-----------5--4--2--4--2-----2--------|--------------------5---------------|--------------------------5-----5--3--|--0--0--0---------------------------|--0--0--0-----------------------------|
------------------------------------|--------------------------------------|------------------------------------|--------------------------------------|------------------------------------|--------------------------------------|-----------5--4--2-----2------------|-----------9-----------------9--------|--------------------5-----5--3~-----|-----------7-----------------7--------|--0--0--0---------------------------|--0--0--0-----0--0--0--0--0-----0--0--|
----------------------------------|--------------------------------------|----------------------------------|--------------------------------------|----------------------------------|--------------------------------------|-----------9----------------------|-----------9-----------------9--------|-----------7--------4------5------|-----------7-----------------7--------|--0--0--0-----0--0--2------3------|--0--0--0-----0--0--0--0--0-----0--0--|
------------------------------------|--------------------------------------|------------------------------------|--------------------------------------|-----------------------------2------|--------------------------------------|-----------9--------5--4------------|-----------9-----------------9--------|-----------7--------------5---------|-----------7-----------------7--------|--0--0--0-----0--0------------------|--0--0--0-----0--0--0--0--0-----0--0--|
----------------------------------|--------------------------------------|----------------------------------|--------------------------------------|----------------------------------|--------------------------------------|-----------9----------------------|-----------9-----------------9--------|-----------7--------4------5------|-----------7-----------------7--------|--0--0--0-----0--0--2------3------|--0--0--0-----0--0--0--0--0-----0--0--|
----------------------------------------|--------------------------------10------|--------------------12--11------2-------|-----------9--------5---4---12----------|-----------7----------------5-----------|--0--0--0-----0--0----------------------|
|---------------------------------------|----------------------------------||---------------------------------------|----------------------------------||*--------------------------------------|----------------------------------||*-----------9-----------------9--------|-----------9----------------------||------------7-----------------7--------|-----------7--------4------5------||---0--0--0-----0--0--0--0--0-----0--0--|--0--0--0-----0--0--2------3------|
--------------------------------------|--------------------------------------|--------------------------------------|-----------9-----------------9--------|-----------7-----------------7--------|--0--0--0-----0--0--0--0--0-----0--0--|
-----------------------------------------||--------------------------------10-------||--------------------12--11------2-------*||-----------9--------5---4---12----------*||-----------7----------------5------------||--0--0--0-----0--0-----------------------||
---------------------------------------|---------------------------------|---------------------------------------|---------------------------------|*--------------------------------------|---------------------------------|*--------------------------------------|---------------------0--------0--|---------------------------------------|--5---------------2--------0-----|---3--3--3--3--3--3--3--3--3--3--3--3--|--3------------3--------2--------|
-----------------------------------|-------------------------------------||-----------------------------------|-------------------------------------||-----------------------------------|------------------------------------*||-----------9---------------11------|-----------12---------------11------*||-----------7---------------9-------|-----------10---------------9--------||--0--0--0---------0--0--0----------|--0--0--0----------0--0--0-----------||
-----------------------------------|------------------------------------|-----------------------------------|------------------------------------|-----------------------------------|------------------------------------|-----------9---------------11------|-----------12---------------11------|-----------7---------------9-------|-----------10---------------9-------|--0--0--0---------0--0--0----------|--0--0--0----------0--0--0----------|
|---------------------------------------|----------------------------------||---------------------------------------|----------------------------------||*--------------------------------------|----------------------------------||*-----------9-----------------9--------|-----------9----------------------||------------7-----------------7--------|-----------7--------4------5------||---0--0--0-----0--0--0--0--0-----0--0--|--0--0--0-----0--0--2------3------|
--------------------------------------|--------------------------------------|--------------------------------------|-----------9-----------------9--------|-----------7-----------------7--------|--0--0--0-----0--0--0--0--0-----0--0--|
-----------------------------------------||--------------------------------10-------||--------------------12--11------2-------*||-----------9--------5---4---12----------*||-----------7----------------5------------||--0--0--0-----0--0-----------------------||
---------------------------------------|---------------------------------|---------------------------------------|---------------------------------|*--------------------------------------|---------------------------------|*--------------------------------------|---------------------0--------0--|---------------------------------------|--5---------------2--------0-----|---3--3--3--3--3--3--3--3--3--3--3--3--|--3------------3--------2--------|
-----------------------------------|-------------------------------------||-----------------------------------|-------------------------------------||-----------------------------------|------------------------------------*||-----------9---------------11------|-----------12---------------11------*||-----------7---------------9-------|-----------10---------------9--------||--0--0--0---------0--0--0----------|--0--0--0----------0--0--0-----------||
----------------------|----------------------|-------------------------------|----------------------|----------------------|-------------------------------|----------------------|----------------------|-------------------------------|--9--------9----9--9--|--9----9--9--9--------|--7/-9--9--9--9--9--9----11----|--7--------7----7--7--|--7----7--7--7--------|--5/-7--7--7--7--7--7----9-----|--0--------0----0--0--|--0----0--0--0--------|-------------------------------|
--------------------------------------|------------------------------|--------------------------------------|------------------------------|--------------------------------------|------------------------------|--12--12--12--12--12--12--12----11----|--7/-9--9--9--9--9--9----7----|--10--10--10--10--10--10--10----9-----|--5/-7--7--7--7--7--7----5----|--------------------------------------|------------------------------|
------------------------------|-------------------------------|------------------------------|-------------------------------|------------------------------|-------------------------------|--5--5--5--5--5--5--5----4----|--7/-9--9--9--9--9--9----11----|--3--3--3--3--3--3--3----2----|--5/-7--7--7--7--7--7----9-----|------------------------------|-------------------------------|
--------------------------------------|------------------------------|--------------------------------------|------------------------------|--------------------------------------|------------------------------|--12--12--12--12--12--12--12----11----|--7/-9--9--9--9--9--9----7----|--10--10--10--10--10--10--10----9-----|--5/-7--7--7--7--7--7----5----|--------------------------------------|------------------------------|
------------------------------|-------------------|-------------------|------------------------------|-------------------|-------------------|------------------------------|-------------------|-------------------|--5--5--5--5--5--5--5----7----|--9----------------|-------------------|--3--3--3--3--3--3--3----5----|--7----------------|--5----------------|------------------------------|-------------------|--3----------------|
-------------------|---------------------------|-------------------|-------------------|---------------------------|-------------------|-------------------|---------------------------|-------------------|--5----------------|--4---------5----4---------|--2----------------|--3----------------|--2------2------------5----|--0----------------|-------------------|---------------------------|-------------------|
--------------------|-------------------|------------------|--------------------|-------------------|------------------|--------------------|-------------------|------------------|---------------7----|--9----------------|------------------|--5------------5----|--7----------------|------------------|--3-----------------|--0----------------|------------------|
--------------------|-------------------|-------------------|--------------------|-------------------|-------------------|--------------------|-------------------|-------------------|--9-----------------|-------------------|--5----------------|--7------------4----|--5----------------|--3----------------|--0------------2----|--3----------------|-------------------|
--------------------------|-------------------|--------------------|--------------------------|-------------------|--------------------|--------------------------|-------------------|--------------------|--4--------5----4---------|--2----------------|---------------7----|--2------------------5----|--0----------------|--5------------5----|--------------------------|-------------------|--3-----------------|
--------------------------------------|--------------------------------------|--------------------------------------|--------------------------------------|--------------------------------------|--------------------------------------|--------------------------------------|--------------------------------------|--7--7--7--7--7--7--7--7--7--7--7--7--|--5h-7--7--7--7--7--7--7--7--7--7--7--|--------------------------------------|--------------------------------------|
-------------------------------|--------------------------------------|-------------------------------|--------------------------------------|-------------------------------|--------------------------------------|--7/-9--9--9--9--9--9----11----|--12--12--12--12--12--12--12----11----|--5/-7--7--7--7--7--7----9-----|--10--10--10--10--10--10--10----9-----|-------------------------------|--------------------------------------|
------------------------------|------------------------------|------------------------------|------------------------------|------------------------------|------------------------------|--7/-9--9--9--9--9--9----7----|--5--5--5--5--5--5--5----4----|--5/-7--7--7--7--7--7----5----|--3--3--3--3--3--3--3----2----|------------------------------|------------------------------|
-------------------------------|--------------------------------------|-------------------------------|--------------------------------------|-------------------------------|--------------------------------------|--7/-9--9--9--9--9--9----11----|--12--12--12--12--12--12--12----11----|--5/-7--7--7--7--7--7----9-----|--10--10--10--10--10--10--10----9-----|-------------------------------|--------------------------------------|
------------------------------|------------------------------||------------------------------|------------------------------||------------------------------|------------------------------||--7/-9--9--9--9--9--9----7----|--5--5--5--5--5--5--5----7----||--5/-7--7--7--7--7--7----5----|--3--3--3--3--3--3--3----5----||------------------------------|------------------------------||
Tap to rate this tab
 
# A B C D E F G H I J K L M N O P Q R S T U V W X Y Z