Overkill – Spiritual Void tab

Spiritual Void
Overkill

Intro: D||--------------------------|---------------------------|A||--------------------------|---------------------------|F||*-------------------------|---------------------------|C||*-------------------------|---------------3h5p3-------|G||---------5p3----3----5----|--------5p3-----------4----|C||---0---0-----0------------|--0---0-----0--------------|
3x Verse:1 --------------------------|-----------------------||-------------------------|--------------------------|-----------------------||-------------------------|--------------------------|----------------------*||*------------------------|--------------------------|----------------------*||*------------------------|--------5p3----3----5-----|--5----4----3----2-----||---1--0-----0-1--0-----0-|--0---0-----0-----------0-|--5----4----3----2-----||---1--0-----0-1--0-----0-|
-------------------------|-------------------------|---------------------||-------------------------|-------------------------|---------------------||-------------------------|-------------------------|--------------------*||-------------------------|-------------------------|--------------------*||--1--0-1--0-1--0-----0-1-|---0----0-1--0----0-1--0-|---1/4--3----4----0--||--1--0-1--0-1--0-----0-1-|---0----0-1--0----0-1--0-|---1/4--3----4----0--||
Bridge: --------------------------|-------------------------|-------------------------|--------------------------|-------------------------|-------------------------|*-------------------------|-------------------------|-------------------------|*-------------------------|-------------------------|-------------------------|---1--0----6/7\6---5----0-|--1--0----6/7\6---5----0-|--1--0----6/7\6---5----0-|---1--0-----------------0-|--1--0-----------------0-|--1--0-----------------0-|
Chorus: ---------------------------||-----------------------|---------------------------||-----------------------|--------------------------*||*----------------------|--------------------------*||*----------------------|--1--0--1/4--3-----4----0--||---0----6----5----3----|--1--0--1/4--3-----4----0--||---0----6----5----3----|
--------------------------||----------------------------||--------------------------||----------------------------||-------------------------*||*--------------------------*||-------------------------*||*--------------------------*||--0----3---5-6--5--3--5---||---0--0--0--0--0--0--0--0---||--0----3---5-6--5--3--5---||---0--0--0--0--0--0--0--0---||
-------------------------|---------------------------|-------------------------|---------------------------|-------------------------|---------------------------|-------------------------|---------------3h5p3-------|--------5p3----3----5----|--------5p3-----------4----|--0---0-----0------------|--0---0-----0--------------|
Verse:2 |-------------------------|-------------------------|-------------------------||-------------------------|-------------------------|-------------------------||*------------------------|-------------------------|-------------------------||*------------------------|-------------------------|-------------------------||---1--0-----0-1--0-----0-|--1--0-1--0-1--0-----0-1-|---0----0-1--0----0-1--0-||---1--0-----0-1--0-----0-|--1--0-1--0-1--0-----0-1-|---0----0-1--0----0-1--0-|
Bridge: ---------------------||-------------------------|-------------------------|---------------------||-------------------------|-------------------------|--------------------*||-------------------------|-------------------------|--------------------*||-------------------------|-------------------------|---1/4--3----4----0--||--1--0----6/7\6---5----0-|--1--0----6/7\6---5----0-|---1/4--3----4----0--||--1--0-----------------0-|--1--0-----------------0-|
Chorus: -------------------------|--------------------------||-----------------------|-------------------------|--------------------------||-----------------------|-------------------------|--------------------------||*----------------------|-------------------------|--------------------------||*----------------------|--1--0----6/7\6---5----0-|--1--0--1/4--3-----4----0-||---0----6----5----3----|--1--0-----------------0-|--1--0--1/4--3-----4----0-||---0----6----5----3----|
3x Interlude: --------------------------||---------------------------|--------------------------||---------------------------|-------------------------*||*--------------------------|-------------------------*||*--------------------------|--0----3---5-6--5--3--5---||---0--0--6--6--5--5--3--3--|--0----3---5-6--5--3--5---||---0--0--6--6--5--5--3--3--|
3x ---------------------------||-----------------------|---------------------------||-----------------------|--------------------------*||*----------------------|--------------------------*||*----------------------|--0--0--3---5-6--5--3--5---||---0----6----5----3----|--0--0--3---5-6--5--3--5---||---0----6----5----3----|
--------------------------||---------------------------|--------------------------||---------------------------|-------------------------*||*--------------------------|-------------------------*||*--------------------------|--0----3---5-6--5--3--5---||---0--0--6--6--5--5--3--3--|--0----3---5-6--5--3--5---||---0--0--6--6--5--5--3--3--|
---------------------------||-----------------------|---------------------------||-----------------------|--------------------------*||*----------------------|--------------------------*||*----------------------|--0--0--3---5-6--5--3--5---||---0----6----5----3----|--0--0--3---5-6--5--3--5---||---0----6----5----3----|
Pre-Solo: --------------------------||------------------------|------------------------|--------------------------||------------------------|------------------------|-------------------------*||------------------------|------------------------|-------------------------*||------------------------|------------------------|--0----3---5-6--5--3--5---||--0--0-----0-0---0------|--3/5-------------------|--0----3---5-6--5--3--5---||--0--0-----0-0---0---x--|--------6-5---3~-----x--|
------------------------|--------------------------------------|------------------------|--------------------------------------|------------------------|--------------------------------------|------------------------|--------------------------------------|--0--0-----0-0---0------|--------------------------------------|--0--0-----0-0---0---x--|--6--5--0--3--5--0--6--5--0--3--5--0--|
Surge to Solo: ------------------------|-------------------------|-------------------|------------------------|-------------------------|-------------------|------------------------|-------------------------|-------------------|------------------------|-------------------------|-------------------|--0--0-----0-0---0------|--3/5--------------------|--6----------------|--0--0-----0-0---0---x--|-------6-5---3----5----0-|--6----------------|
--------------------|-------------------|------------------|--------------------|-------------------|------------------|--------------------|-------------------|------------------|--------------------|-------------------|------------------|--5--------3--------|--0----------------|------------------|--5--------3--------|--0----------------|------------------|
Solo Riff: --------------------------------|-----------------|--------------------------------|-----------------|--------------------------------|-----------------|--------------------------------|-----------------|--3h5---5----3h5---5----3h5---5-|-----3h5---5p3---|------0-0--0-----0-0--0-----0-0-|---0-3h5-0-5p3-0-|
--------------------------------|-----------------------------|--------------------------------|-----------------------------|--------------------------------|-----------------------------|--------------------------------|-----------------------------|--3h5---5----3h5---5----3h5---5-|-----3h5---5----3h5---5--0---|------0-0--0-----0-0--0-----0-0-|---0-3h5-0-5--0-3h5-0-5--0---|
--------------------------------|-----------------|--------------------------------|-----------------|--------------------------------|-----------------|--------------------------------|-----------------|--3h5---5----3h5---5----3h5---5-|-----3h5---5p3---|------0-0--0-----0-0--0-----0-0-|---0-3h5-0-5p3-0-|
--------------------------------|----------------------||--------------------------------|----------------------||--------------------------------|----------------------||--------------------------------|----------------------||--3h5---5----3h5---5----3h5---5-|---5----6----3----5---||------0-0--0-----0-0--0-----0-0-|---5----6----3----5---||
Then Back to intro Riff one time. Then Verse - Chorus/Out
Please rate this tab:
x1.0