Overkill - Thanx For Nothin tab

Overkill - Thanx' For Nothin'
Tuned: Drop D

E||-------------------------|------------------------|------------------------|B||-------------------------|------------------------|------------------------|G||*------------------------|------------------------|------------------------|D||*------------------------|------------------------|------------------------|A||---0-------------6----3--|--0-------------6----3--|--0-------------6----3--|D||---0----0--0--0--6----3--|--0----0--0--0--6----3--|--0----0--0--0--6----3--|
3x--------------------------||------------------||-------------------------|--------------------------||------------------||-------------------------|-------------------------*||------------------||*------------------------|-------------------------*||------------------||*------------------------|--0-------5-----6--5--3---||------------------||---0-------------6----3--|--0----0--5--0--6--5--3---||------------------||---0----0--0--0--6----3--|
3x------------------------|------------------------|--------------------------||------------------------|------------------------|--------------------------||------------------------|------------------------|-------------------------*||------------------------|------------------------|-------------------------*||--0-------------6----3--|--0-------------6----3--|--0-------5-----6--5--3---||--0----0--0--0--6----3--|--0----0--0--0--6----3--|--0----0--5--0--6--5--3---||
--------------------------|--------------------------|--------------------------|--------------------------|--------------------------|--------------------------|--------------------------|--------------------------|--0-----------------------|--2-----------------------|--0--0--0--0--0--0--0--0--|--2--2--2--2--2--2--2--2--|
--------------------------|--------------------------|--------------------------|--------------------------|--------------------------|--------------------------|--------------------------|--------------------------|--3-----------------------|--5-----------3-----------|--3--3--3--3--3--3--3--3--|--5--5--5--5--3--3--3--3--|
--------------------------|----------------------------------|--------------------------|----------------------------------|--------------------------|----------------------------------|--------------------------|----------------------------------|--0-----------------------|--10------------------------------|--0--0--0--0--0--0--0--0--|--10--10--10--10--10--10--10--10--|
--------------------------|--------------------------|--------------------------|--------------------------|--------------------------|--------------------------|--------------------------|--------------------------|--5-----------------------|--6-----------3-----------|--5--5--5--5--5--5--5--5--|--6--6--6--6--3--3--3--3--|
--------------------------|--------------------------|--------------------------|--------------------------|--------------------------|--------------------------|--------------------------|--------------------------|--0-----------------------|--2-----------------------|--0--0--0--0--0--0--0--0--|--2--2--2--2--2--2--2--2--|
--------------------------|--------------------------|--------------------------|--------------------------|--------------------------|--------------------------|--------------------------|--------------------------|--3-----------------------|--5-----------3-----------|--3--3--3--3--3--3--3--3--|--5--5--5--5--3--3--3--3--|
--------------------------|----------------------------------|--------------------------|----------------------------------|--------------------------|----------------------------------|--------------------------|----------------------------------|--0-----------------------|--10------------------------------|--0--0--0--0--0--0--0--0--|--10--10--10--10--10--10--10--10--|
--------------------------|------------------------|--------------------------|--------------------------|------------------------|--------------------------|--------------------------|------------------------|--------------------------|--------------------------|------------------------|--------------------------|--5-----------------------|--6-------5-------------|--------------------------|--5--5--5--5--5--5--5--5--|--6----0--5----0--0--0--|--0--0--0--0--0--0--0--0--|
------------------------|--------------------------|------------------------|------------------------|--------------------------|------------------------|------------------------|--------------------------|------------------------|------------------------|--------------------------|------------------------|--6-------5-------------|--------------------------|--6-------5-------------|--6----0--5----0--0--0--|--0--0--0--0--0--0--0--0--|--6----0--5----0--0--0--|
------------------------|----------------------|----------------------|------------------------|----------------------|----------------------|------------------------|----------------------|----------------------|------------------------|----------------------|----------------------|--6-------5-------------|--6----5----6----5----|--6----5----3----2----|--6----0--5----0--0--0--|--6----5----6----5----|--6----5----3----2----|
|-------------------------|------------------------|------------------------||-------------------------|------------------------|------------------------||*------------------------|------------------------|------------------------||*------------------------|------------------------|------------------------||---0-------------6----3--|--0-------------6----3--|--0-------------6----3--||---0----0--0--0--6----3--|--0----0--0--0--6----3--|--0----0--0--0--6----3--|
--------------------------||-------------------------|------------------------|--------------------------||-------------------------|------------------------|-------------------------*||*------------------------|------------------------|-------------------------*||*------------------------|------------------------|--0-------5-----6--5--3---||---0-------------6----3--|--0-------------6----3--|--0----0--5--0--6--5--3---||---0----0--0--0--6----3--|--0----0--0--0--6----3--|
3x------------------------|--------------------------||--------------------------|------------------------|--------------------------||--------------------------|------------------------|-------------------------*||--------------------------|------------------------|-------------------------*||--------------------------|--0-------------6----3--|--0-------5-----6--5--3---||--0-----------------------|--0----0--0--0--6----3--|--0----0--5--0--6--5--3---||--0--0--0--0--0--0--0--0--|
--------------------------|--------------------------|--------------------------|--------------------------|--------------------------|--------------------------|--------------------------|--------------------------|--2-----------------------|--3-----------------------|--2--2--2--2--2--2--2--2--|--3--3--3--3--3--3--3--3--|
--------------------------|--------------------------|--------------------------|--------------------------|--------------------------|--------------------------|--------------------------|--------------------------|--5-----------3-----------|--0-----------------------|--5--5--5--5--3--3--3--3--|--0--0--0--0--0--0--0--0--|
----------------------------------|--------------------------|----------------------------------|--------------------------|----------------------------------|--------------------------|----------------------------------|--------------------------|--10------------------------------|--5-----------------------|--10--10--10--10--10--10--10--10--|--5--5--5--5--5--5--5--5--|
--------------------------|--------------------------|--------------------------|--------------------------|--------------------------|--------------------------|--------------------------|--------------------------|--6-----------3-----------|--0-----------------------|--6--6--6--6--3--3--3--3--|--0--0--0--0--0--0--0--0--|
--------------------------|--------------------------|--------------------------|--------------------------|--------------------------|--------------------------|--------------------------|--------------------------|--2-----------------------|--3-----------------------|--2--2--2--2--2--2--2--2--|--3--3--3--3--3--3--3--3--|
--------------------------|--------------------------|--------------------------|--------------------------|--------------------------|--------------------------|--------------------------|--------------------------|--5-----------3-----------|--0-----------------------|--5--5--5--5--3--3--3--3--|--0--0--0--0--0--0--0--0--|
----------------------------------|--------------------------|----------------------------------|--------------------------|----------------------------------|--------------------------|----------------------------------|--------------------------|--10------------------------------|--5-----------------------|--10--10--10--10--10--10--10--10--|--5--5--5--5--5--5--5--5--|
------------------------|--------------------------|------------------------|------------------------|--------------------------|------------------------|------------------------|--------------------------|------------------------|------------------------|--------------------------|------------------------|--6-------5-------------|--------------------------|--6-------5-------------|--6----0--5----0--0--0--|--0--0--0--0--0--0--0--0--|--6----0--5----0--0--0--|
--------------------------|------------------------|------------------------|--------------------------|------------------------|------------------------|--------------------------|------------------------|------------------------|--------------------------|------------------------|------------------------|--------------------------|--6-------5-------------|--6-------5-------------|--0--0--0--0--0--0--0--0--|--6----0--5----0--0--0--|--6----0--5----0--0--0--|
*See Bottom For Bass Part----------------------|----------------------|------|------|------|------|----------------------|----------------------|------|------|------|------|----------------------|----------------------|------|------|------|------|----------------------|----------------------|------|------|------|------|--6----5----6----5----|--6----5----3----2----|------|------|------|------|--6----5----6----5----|--6----5----3----2----|------|------|------|------|
------|------|------|------||-------------------------|------|------|------|------||-------------------------|------|------|------|------||*------------------------|------|------|------|------||*------------------------|------|------|------|------||---------------3------0--|------|------|------|------||---0--0--0--0--3------0--|
2x------------------------||------------------------|-------------------------|------------------------||------------------------|-------------------------|-----------------------*||------------------------|-------------------------|-----------------------*||------------------------|-------------------------|-------------3----3-----||--------------3------0--|-------------------3--5--|----0--0--0--3----3-----||--0--0--0--0--3------0--|----0--0--0--3--5--------|
7x|-------------------------|------------------------||---------------------||-------------------------|------------------------||---------------------||*------------------------|-----------------------*||*--------------------||*------------------------|-----------------------*||*--------------------||---------------3------0--|-------------3----3-----||---6-----------------||---0--0--0--0--3------0--|----0--0--0--3----3-----||---6------------0----|
---------------------|------------------------|-----------------------|---------------------|------------------------|-----------------------|---------------------|------------------------|-----------------------|---------------------|------------------------|-----------------------|--5--------3----2----|--------------3------0--|-------------3----3----|--5--------3----2----|--0--0--0--0--3------0--|----0--0--0--3----3----|
------------------------|-----------------------|--------------------|------------------------|-----------------------|--------------------|------------------------|-----------------------|--------------------|------------------------|-----------------------|--------------------|--------------3------0--|-------------3----3----|--6-----------------|--0--0--0--0--3------0--|----0--0--0--3----3----|--6------------0----|
---------------------|------------------------|-----------------------|---------------------|------------------------|-----------------------|---------------------|------------------------|-----------------------|---------------------|------------------------|-----------------------|--5--------3----2----|--------------3------0--|-------------3----3----|--5--------3----2----|--0--0--0--0--3------0--|----0--0--0--3----3----|
--------------------------|----------||-------------------------|--------------------------|----------||-------------------------|--------------------------|----------||*------------------------|--------------------------|----------||*------------------------|--------------------------|----------||---------------3------0--|--0--0--0--0--6h-3--0--3--|----------||---0--0--0--0--3------0--|
-----------------------|------------------------|-----------------------|-----------------------|------------------------|-----------------------|-----------------------|------------------------|-----------------------|-----------------------|------------------------|-----------------------|-------------3----3----|--------------3------0--|-------------3----3----|----0--0--0--3----3----|--0--0--0--0--3------0--|----0--0--0--3----3----|
------------------------|-----------------------|------------------------|------------------------|-----------------------|------------------------|------------------------|-----------------------|------------------------|------------------------|-----------------------|------------------------|--------------3------0--|-------------3----3----|--------------3------0--|--0--0--0--0--3------0--|----0--0--0--3----3----|--0--0--0--0--3------0--|
-------------------------|------------------------|-----------------------|-------------------------|------------------------|-----------------------|-------------------------|------------------------|-----------------------|-------------------------|------------------------|-----------------------|-------------------3--5--|--------------3------0--|-------------3----3----|----0--0--0--3--5--------|--0--0--0--0--3------0--|----0--0--0--3----3----|
------------------------|-----------------------|------------------------|------------------------|-----------------------|------------------------|------------------------|-----------------------|------------------------|------------------------|-----------------------|------------------------|--------------3------0--|-------------3----3----|--------------3------0--|--0--0--0--0--3------0--|----0--0--0--3----3----|--0--0--0--0--3------0--|
-----------------------|------------------------|-----------------------|-----------------------|------------------------|-----------------------|-----------------------|------------------------|-----------------------|-----------------------|------------------------|-----------------------|-------------3----3----|--------------3------0--|-------------3----3----|----0--0--0--3----3----|--0--0--0--0--3------0--|----0--0--0--3----3----|
--------------------|---------------------|------------------------|--------------------|---------------------|------------------------|--------------------|---------------------|------------------------|--------------------|---------------------|------------------------|--6-----------------|--5--------3----2----|--------------3------0--|--6------------0----|--5--------3----2----|--0--0--0--0--3------0--|
-----------------------|------------------------|-----------------------|-----------------------|------------------------|-----------------------|-----------------------|------------------------|-----------------------|-----------------------|------------------------|-----------------------|-------------3----3----|--------------3------0--|-------------3----3----|----0--0--0--3----3----|--0--0--0--0--3------0--|----0--0--0--3----3----|
--------------------|---------------------|------------------------|--------------------|---------------------|------------------------|--------------------|---------------------|------------------------|--------------------|---------------------|------------------------|--6-----------------|--5--------3----2----|--------------3------0--|--6------------0----|--5--------3----2----|--0--0--0--0--3------0--|
-----------------------|--------------------------|----------|-----------------------|--------------------------|----------|-----------------------|--------------------------|----------|-----------------------|--------------------------|----------|-------------3----3----|--------------------------|----------|----0--0--0--3----3----|--0--0--0--0--6h-3--0--3--|----------|
|-------------------------|------------------------|------------------------||-------------------------|------------------------|------------------------||*------------------------|------------------------|------------------------||*------------------------|------------------------|------------------------||---0-------------6----3--|--0-------------6----3--|--0-------------6----3--||---0----0--0--0--6----3--|--0----0--0--0--6----3--|--0----0--0--0--6----3--|
3x--------------------------||--------------------------|--------------------------||--------------------------|-------------------------*||*-------------------------|-------------------------*||*-------------------------|--0-------5-----6--5--3---||---6----------------------|--0----0--5--0--6--5--3---||---6----6--6--6--6--6--6--|
-------------------------|------------------------|-------------------------||-------------------------|------------------------|-------------------------||-------------------------|------------------------|------------------------*||-------------------------|------------------------|------------------------*||--6----------------------|--0-------------6----3--|--0-------------6----3---||--6----6--6--6--6--6--6--|--0----0--0--0--6----3--|--0----0--0--0--6----3---||
----------------------|----------------------|----------------------|----------------------|----------------------|----------------------|----------------------|----------------------|----------------------|----------------------|----------------------|----------------------|--0----0----0----0----|--0----0----0----0----|--0----0----0----0----|--0----0----0----0----|--0----0----0----0----|--0----0----0----0----|
-------------------------|------------------------|------------------------|-------------------------|------------------------|------------------------|-------------------------|------------------------|------------------------|-------------------------|------------------------|------------------------|--0-------5-----6--5--3--|--0-------------6----3--|--0-------------6----3--|--0----0--5--0--6--5--3--|--0----0--0--0--6----3--|--0----0--0--0--6----3--|
------------------------|-------------------------||---------------------------|------------------------|-------------------------||---------------------------|------------------------|-------------------------||*--------------------------|------------------------|-------------------------||*--------------------------|--0-------------6----3--|--0-------5-----6--5--3--||---0-----------------------|--0----0--0--0--6----3--|--0----0--5--0--6--5--3--||---0--0--0--0--0--0--0--0--|
--------------------------|--------------------------|--------------------------|--------------------------|--------------------------|--------------------------|--------------------------|--------------------------|--2-----------------------|--3-----------------------|--2--2--2--2--2--2--2--2--|--3--3--3--3--3--3--3--3--|
--------------------------|--------------------------|--------------------------|--------------------------|--------------------------|--------------------------|--------------------------|--------------------------|--5-----------3-----------|--0-----------------------|--5--5--5--5--3--3--3--3--|--0--0--0--0--0--0--0--0--|
----------------------------------|--------------------------|----------------------------------|--------------------------|----------------------------------|--------------------------|----------------------------------|--------------------------|--10------------------------------|--5-----------------------|--10--10--10--10--10--10--10--10--|--5--5--5--5--5--5--5--5--|
--------------------------|--------------------------|--------------------------|--------------------------|--6-----------3-----------|--6--6--6--6--3--3--3--3--|
Bass Part(solo):------------------------|-----------------------|------------------------|------------------------|-----------------------|------------------------|------------------------|-----------------------|------------------------|--0--0--0--0--3------0--|----0--0--0--3----3----|--0--0--0--0--3------0--|
-------------------------|------------------------|-----------------------|-------------------------|------------------------|-----------------------|-------------------3h-5--|------------------------|-----------------------|----0--0--0--3h-5--------|--0--0--0--0--3------0--|----0--0--0--3----3----|
-------------------------|-------------------------|-------------------------|-------------------------|--------3--5--3--5----5--|----3--------3-----------|--5--6-------------------|-------6--5-----6--5--3--|
It is only the rhythm cus the lead is way too hard. If anyone knows where to get the solo's from can u eamil me at Metal_Head@Dingoblue.net.au Keep Metal Alive
Tap to rate this tab
 
# A B C D E F G H I J K L M N O P Q R S T U V W X Y Z