Overkill - Im Allright tab

                                  I'm Alright                                   


Distortion Guitar
Dropped D



                                                                      
E||------------------|------------------|----------------------------|B||------------------|------------------|----------------------------|G||------------------|------------------|----------------------------|D||------------------|------------------|----------------------------|A||------------------|------------------|----------------------------|D||------------------|------------------|--0--0--1-3-1--0--0--1-3-1--|
---------------------------|----------------------------|---------------------------|----------------------------|---------------------------|----------------------------|---------------------------|----------------------------|---------------------------|----------------------------|--0--0--1-3-1--0--3--5--1--|--0--0--1-3-1--0--0--1-3-1--|
---------------------------|----------------------------|---------------------------|----------------------------|---------------------------|----------------------------|---------------------------|----------------------------|---------------------------|----------------------------|--0--0--1-3-1--0--3--5--1--|--0--0--1-3-1--0--0--1-3-1--|
---------------------------|----------------------------|-------------------|---------------------------|----------------------------|-------------------|---------------------------|----------------------------|-------------------|---------------------------|----------------------------|-------------------|---------------------------|----------------------------|-------------------|--0--0--1-3-1--0--3--5--1--|--0--0--1-3-1--0--0--1-3-1--|--0----------------|
----------------------------|---------------------------|----------------------------|---------------------------|----------------------------|---------------------------|----------------------------|---------------------------|----------------------------|---------------------------|--0--0--1-3-1--0--0--1-3-1--|--0--0--1-3-1--0--3--5--1--|
----------------------------|---------------------------|----------------------------|---------------------------|----------------------------|---------------------------|----------------------------|---------------------------|----------------------------|---------------------------|--0--0--1-3-1--0--0--1-3-1--|--0--0--1-3-1--0--3--5--1--|
----------------------------|---------------------------|----------------------------|---------------------------|----------------------------|---------------------------|----------------------------|---------------------------|----------------------------|---------------------------|--0--0--1-3-1--0--0--1-3-1--|--0--0--1-3-1--0--3--5--1--|
----------------------------|--------------------------|----------------------------|--------------------------|----------------------------|--------------------------|----------------------------|--------------------------|----------------------------|--------------------------|--0--0--1-3-1--0--0--1-3-1--|--0--0--0--0--0--0--0--0--|
----------------------------|---------------------------|----------------------------|---------------------------|----------------------------|---------------------------|----------------------------|---------------------------|----------------------------|---------------------------|--0--0--1-3-1--0--0--1-3-1--|--0--0--1-3-1--0--3--5--1--|
----------------------------|---------------------------|----------------------------|---------------------------|----------------------------|---------------------------|----------------------------|---------------------------|----------------------------|---------------------------|--0--0--1-3-1--0--0--1-3-1--|--0--0--1-3-1--0--3--5--1--|
----------------------------|---------------------------|----------------------------|---------------------------|----------------------------|---------------------------|----------------------------|---------------------------|----------------------------|---------------------------|--0--0--1-3-1--0--0--1-3-1--|--0--0--1-3-1--0--3--5--1--|
----------------------------|--------------------------|----------------------------|--------------------------|----------------------------|--------------------------|----------------------------|--------------------------|----------------------------|--------------------------|--0--0--1-3-1--0--0--1-3-1--|--0--0--0--0--0--0--0--0--|
-------------------------|--------------------------|-------------------------|-------------------------|--------------------------|-------------------------|-------------------------|--------------------------|-------------------------|-------------------------|--------------------------|-------------------------|-------------------------|--------------------------|-------------------------|--0--3--6--5----0--3--5--|--0--3--6--5--0--0--0--0--|--0--3--6--5----0--3--5--|
------------------------|-------------------------|--------------------------|------------------------|-------------------------|--------------------------|------------------------|-------------------------|--------------------------|------------------------|-------------------------|--------------------------|------------------------|-------------------------|--------------------------|--0--3--6--5----3---1---|--0--3--6--5----0--3--5--|--0--3--6--5--0--0--0--0--|
-------------------------|--------------|------------------|------------------|-------------------------|--------------|------------------|------------------|-------------------------|--------------|------------------|------------------|-------------------------|--------------|------------------|------------------|-------------------------|--------------|------------------|------------------|--0--3--6--5----0--3--5--|--0--3--6--5--|------------------|------------------|
--------------------------|--------------------------|------------------|--------------------------|--------------------------|------------------|--------------------------|--------------------------|------------------|--0--0--0--0--0--0--0--0--|--0--0--0--0--0-----------|------------------|--------------------------|--------------------------|------------------|--------------------------|-----------------3--2--1--|------------------|
--------------------------|--------------------------|--------------------------|--------------------------|--------------------------|--------------------------|--------------------------|--------------------------|--------------------------|--------------------------|--0--6--0--5--0--0--3--5--|--0--6--0--5--0--0--3--5--|
--------------------------|--------------------------|----------------------|--------------------------|--------------------------|----------------------|--------------------------|--------------------------|----------------------|--------------------------|--------------------------|----------------------|--------------------------|--------------------------|----------------------|--0--6--0--5--0--0--3--5--|--0--6--0--5--0--0--3--5--|--0--0------0--0------|
----------------------------|---------------------------|----------------------------|---------------------------|----------------------------|---------------------------|----------------------------|---------------------------|----------------------------|---------------------------|--0--0--1-3-1--0--0--1-3-1--|--0--0--1-3-1--0--3--5--1--|
----------------------------|---------------------------|----------------------------|---------------------------|----------------------------|---------------------------|----------------------------|---------------------------|----------------------------|---------------------------|--0--0--1-3-1--0--0--1-3-1--|--0--0--1-3-1--0--3--5--1--|
----------------------------|---------------------------|----------------------------|---------------------------|----------------------------|---------------------------|----------------------------|---------------------------|----------------------------|---------------------------|--0--0--1-3-1--0--0--1-3-1--|--0--0--1-3-1--0--3--5--1--|
----------------------------|--------------------------|----------------------------|--------------------------|----------------------------|--------------------------|----------------------------|--------------------------|----------------------------|--------------------------|--0--0--1-3-1--0--0--1-3-1--|--0--0--0--0--0--0--0--0--|
----------------------------|---------------------------|----------------------------|---------------------------|----------------------------|---------------------------|----------------------------|---------------------------|----------------------------|---------------------------|--0--0--1-3-1--0--0--1-3-1--|--0--0--1-3-1--0--3--5--1--|
----------------------------|---------------------------|----------------------------|---------------------------|----------------------------|---------------------------|----------------------------|---------------------------|----------------------------|---------------------------|--0--0--1-3-1--0--0--1-3-1--|--0--0--1-3-1--0--3--5--1--|
----------------------------|---------------------------|----------------------------|---------------------------|----------------------------|---------------------------|----------------------------|---------------------------|----------------------------|---------------------------|--0--0--1-3-1--0--0--1-3-1--|--0--0--1-3-1--0--3--5--1--|
----------------------------|--------------------------|----------------------------|--------------------------|----------------------------|--------------------------|----------------------------|--------------------------|----------------------------|--------------------------|--0--0--1-3-1--0--0--1-3-1--|--0--0--0--0--0--0--0--0--|
-------------------------|--------------------------|-------------------------|-------------------------|--------------------------|-------------------------|-------------------------|--------------------------|-------------------------|-------------------------|--------------------------|-------------------------|-------------------------|--------------------------|-------------------------|--0--3--6--5----0--3--5--|--0--3--6--5--0--0--0--0--|--0--3--6--5----0--3--5--|
------------------------|-------------------------|--------------------------|------------------------|-------------------------|--------------------------|------------------------|-------------------------|--------------------------|------------------------|-------------------------|--------------------------|------------------------|-------------------------|--------------------------|--0--3--6--5----3---1---|--0--3--6--5----0--3--5--|--0--3--6--5--0--0--0--0--|
-------------------------|--------------|------------------|------------------|-------------------------|--------------|------------------|------------------|-------------------------|--------------|------------------|------------------|-------------------------|--------------|------------------|------------------|-------------------------|--------------|------------------|------------------|--0--3--6--5----0--3--5--|--0--3--6--5--|------------------|------------------|
--------------------------|--------------------------|------------------|--------------------------|--------------------------|------------------|--------------------------|--------------------------|------------------|--0--0--0--0--0--0--0--0--|--0--0--0--0--0-----------|------------------|--------------------------|--------------------------|------------------|--------------------------|-----------------3--2--1--|------------------|
--------------------------|--------------------------|--------------------------|--------------------------|--------------------------|--------------------------|--------------------------|--------------------------|--------------------------|--------------------------|--0--6--0--5--0--0--3--5--|--0--6--0--5--0--0--3--5--|
--------------------------|--------------------------|----------------------|--------------------------|--------------------------|----------------------|--------------------------|--------------------------|----------------------|--------------------------|--------------------------|----------------------|--------------------------|--------------------------|----------------------|--0--6--0--5--0--0--3--5--|--0--6--0--5--0--0--3--5--|--0--0------0--0------|
----------------------------|----------------------|----------------------|----------------------------|----------------------|----------------------|----------------------------|----------------------|----------------------|----------------------------|----------------------|----------------------|----------------------------|----------------------|----------------------|--0--0------3-3-3-3-3-3-3-3-|--0--0------0--0------|--0--0--------3---1---|
----------------------|----------------------------|----------------------|----------------------|----------------------------|----------------------|----------------------|----------------------------|----------------------|----------------------|----------------------------|----------------------|----------------------|----------------------------|----------------------|--0--0------0--0------|--0--0------3-3-3-3-3-3-3-3-|--0--0------0--0------|
-----------------------|------------------------------|-----------------------|------------------------------|-----------------------|------------------------------|-----------------------|------------------------------|-----------------------|------------------------------|--0--0--------3--2--1--|--0--0-0-0-0--0-0--0-0-0-0--0-|
------------------------------|------------------------------|------------------------------|------------------------------|------------------------------|------------------------------|------------------------------|------------------------------|------------------------------|------------------------------|--0--0-0-0-0--0-0--0-0-0-0--0-|--0--0-0-0-0--0-0--0-0-0-0--0-|
------------------------------|-------------------------------|------------------------------|-------------------------------|------------------------------|-------------------------------|------------------------------|-------------------------------|------------------------------|--2-2-2-2-2-2--2---------------|--0--0-0-0-0--0-0--0-0-0-0--0-|-----------------0--0-0-0-0--0-|
-------------------------------|-------------------------------|-------------------------------|-------------------------------|-------------------------------|-------------------------------|-------------------------------|-------------------------------|--2-2-2-2-2-2--2---------------|--2-2-2-2-2-2--2---------------|-----------------0--0-0-0-0--0-|-----------------0--0-0-0-0--0-|
-------------------------------|-------------------------------|-------------------------------|-------------------------------|-------------------------------|-------------------------------|-------------------------------|-------------------------------|--2-2-2-2-2-2--2---------------|--2-2-2-2-2-2--2---------------|-----------------0--0-0-0-0--0-|-----------------0--0-0-0-0--0-|
-------------------------------|-------------------------------|-------------------------------|-------------------------------|-------------------------------|-------------------------------|-------------------------------|-------------------------------|--2-2-2-2-2-2--2---------------|--2-2-2-2-2-2--2---------------|-----------------0--0-0-0-0--0-|-----------------0--0-0-0-0--0-|
-------------------------------|----------------------|-------------------------------|----------------------|-------------------------------|----------------------|-------------------------------|----------------------|--2-2-2-2-2-2--2---------------|----------------------|-----------------0--0-0-0-0--0-|--0--0------0--0------|
----------------------------|---------------------------|----------------------------|---------------------------|----------------------------|---------------------------|----------------------------|---------------------------|----------------------------|---------------------------|--0--0--1-3-1--0--0--1-3-1--|--0--0--1-3-1--0--3--5--1--|
----------------------------|---------------------------|----------------------------|---------------------------|----------------------------|---------------------------|----------------------------|---------------------------|----------------------------|---------------------------|--0--0--1-3-1--0--0--1-3-1--|--0--0--1-3-1--0--3--5--1--|
----------------------------|---------------------------|----------------------------|---------------------------|----------------------------|---------------------------|----------------------------|---------------------------|----------------------------|---------------------------|--0--0--1-3-1--0--0--1-3-1--|--0--0--1-3-1--0--3--5--1--|
----------------------------|--------------------------|----------------------------|--------------------------|----------------------------|--------------------------|----------------------------|--------------------------|----------------------------|--------------------------|--0--0--1-3-1--0--0--1-3-1--|--0--0--0--0--0--0--0--0--|
----------------------------|---------------------------|----------------------------|---------------------------|----------------------------|---------------------------|----------------------------|---------------------------|----------------------------|---------------------------|--0--0--1-3-1--0--0--1-3-1--|--0--0--1-3-1--0--3--5--1--|
----------------------------|---------------------------|----------------------------|---------------------------|----------------------------|---------------------------|----------------------------|---------------------------|----------------------------|---------------------------|--0--0--1-3-1--0--0--1-3-1--|--0--0--1-3-1--0--3--5--1--|
----------------------------|---------------------------|----------------------------|---------------------------|----------------------------|---------------------------|----------------------------|---------------------------|----------------------------|---------------------------|--0--0--1-3-1--0--0--1-3-1--|--0--0--1-3-1--0--3--5--1--|
----------------------------|--------------------------|----------------------------|--------------------------|----------------------------|--------------------------|----------------------------|--------------------------|----------------------------|--------------------------|--0--0--1-3-1--0--0--1-3-1--|--0--0--0--0--0--0--0--0--|
-------------------------|--------------------------|-------------------------|-------------------------|--------------------------|-------------------------|-------------------------|--------------------------|-------------------------|-------------------------|--------------------------|-------------------------|-------------------------|--------------------------|-------------------------|--0--3--6--5----0--3--5--|--0--3--6--5--0--0--0--0--|--0--3--6--5----0--3--5--|
------------------------|-------------------------|--------------------------|------------------------|-------------------------|--------------------------|------------------------|-------------------------|--------------------------|------------------------|-------------------------|--------------------------|------------------------|-------------------------|--------------------------|--0--3--6--5----3---1---|--0--3--6--5----0--3--5--|--0--3--6--5--0--0--0--0--|
-------------------------|--------------|------------------|------------------|-------------------------|--------------|------------------|------------------|-------------------------|--------------|------------------|------------------|-------------------------|--------------|------------------|------------------|-------------------------|--------------|------------------|------------------|--0--3--6--5----0--3--5--|--0--3--6--5--|------------------|------------------|
--------------------------|--------------------------|----------------------|--------------------------|--------------------------|----------------------|--------------------------|--------------------------|----------------------|--0--0--0--0--0--0--0--0--|--0--0--0--0--0-----------|----------------------|--------------------------|--------------------------|----------------------|--------------------------|-----------------3--2--1--|--0--0------0--0------|
----------------------|----------------------|----------------------|----------------------|----------------------|----------------------|----------------------|----------------------|----------------------|----------------------|----------------------|----------------------|----------------------|----------------------|----------------------|--0--0------0--0------|--0--0------0--0------|--0--0------0--0------|
----------------------|----------------------|----------------------|----------------------|----------------------|----------------------|----------------------|----------------------|----------------------|----------------------|----------------------|----------------------|----------------------|----------------------|----------------------|--0--0------0--0------|--0--0------0--0------|--0--0------0--0------|
----------------------|--------------------------|--------------------------|----------------------|--------------------------|--------------------------|----------------------|--------------------------|--------------------------|----------------------|--------------------------|--------------------------|----------------------|--------------------------|--------------------------|--0--0------0--0------|--0--6--0--5--0--0--3--5--|--0--6--0--5--0--0--3--5--|
--------------------------|--------------------------|----------------------|--------------------------|--------------------------|----------------------|--------------------------|--------------------------|----------------------|--------------------------|--------------------------|----------------------|--------------------------|--------------------------|----------------------|--0--6--0--5--0--0--3--5--|--0--6--0--5--0--0--3--5--|--0--0------0--0------|
------------------|-------------------|------------------|------------------|------------------|-------------------|------------------|------------------|------------------|-------------------|------------------|------------------|------------------|-------------------|------------------|------------------|------------------|-------------------|------------------|------------------|--3-3-3-3-3-3-3-3-|--0----------------|------------------|------------------|
------------------|------------------|------------------|------------------|------------------|------------------|------------------|------------------|------------------|------------------|------------------|------------------|------------------|------------------|------------------|------------------|------------------|------------------|------------------|------------------|------------------|------------------|------------------|------------------|
------------------|-------------------|---------------------------|------------------|-------------------|---------------------------|------------------|----------------7--|--10/-12/-10--------9/-10/-|------------------|-------------------|---------------------------|------------------|-------------------|---------------------------|------------------|-------------------|---------------------------|
-----------------------|----------------------|----------------------|-----------------------|----------------------|----------------------|--9--------9/-10/-9/---|--6----------2--6--7--|--9--7--6----------6--|-----------------------|----------------------|----------------------|-----------------------|----------------------|----------------------|-----------------------|----------------------|----------------------|
---------------------|-------------------------|-------------------------|---------------------|-------------------------|-------------------------|--6/-7------------9--|--9/-10------9/-10/-9----|--9/-10----9----2--6--7--|---------------------|-------------------------|-------------------------|---------------------|-------------------------|-------------------------|---------------------|-------------------------|-------------------------|
----------------------|-------------------------|------------------------|----------------------|-------------------------|------------------------|--9--7--6----------7--|--9--10--12/-14----------|------------12/-14/-12--|----------------------|-------------------------|------------------------|----------------------|-------------------------|------------------------|----------------------|-------------------------|------------------------|
---------------------|-----------8--6--5--6--5--|--3--5--3-----------------|---------------------|--------------------------|-----------3--5--6--3--5--|------------2--6--7--|--9--7--6-----------------|--------------------------|---------------------|--------------------------|--------------------------|---------------------|--------------------------|--------------------------|---------------------|--------------------------|--------------------------|
--------------------------|----------------------|---------------------1-3-5-9-|--6--3--6--3--5--6--5/-3--|--2-------------------|---------------2-3-5---------|--------------------------|-------------2--6--7--|--9--7--6----2---------------|--------------------------|----------------------|-----------------------------|--------------------------|----------------------|-----------------------------|--------------------------|----------------------|-----------------------------|
--10----------------|----------------12-13-|--12-------------------|--------------------|----------------------|-----------------------|--------------------|----------------------|--------------2--6--7--|--------------------|----------------------|-----------------------|--------------------|----------------------|-----------------------|--------------------|----------------------|-----------------------|
-------------------17--|--15-17-13--15--13-15-10--13--12-13-10--|-----------------------|----------------------------------------|--9--7--6--------------|----------------------------------------|-----------------------|----------------------------------------|-----------------------|----------------------------------------|-----------------------|----------------------------------------|
--12--13--10--13--12--10--6--10--|--5-------------------|----------------------|---------------------------------|----------------------|-------------------3--|---------------------------------|-------------2--6--7--|--9--7--6-------------|---------------------------------|----------------------|----------------------|---------------------------------|----------------------|----------------------|---------------------------------|----------------------|----------------------|
-----------------------|----------------------|----------------------|--6/-8/-6--------5/-6/-|--5--------5/-6/-5----|--2-------------------|-----------------------|----------------------|-------------2--6--7--|-----------------------|----------------------|----------------------|-----------------------|----------------------|----------------------|-----------------------|----------------------|----------------------|
----------------------|---------------------|-------------------------|----------------------|---------------------|-------------------------|--9--7--6----------6--|--6/-7------------9--|--9/-10------9/-10--9----|----------------------|---------------------|-------------------------|----------------------|---------------------|-------------------------|----------------------|---------------------|-------------------------|
-------------------------|----------------------|-------------------------||-------------------------|----------------------|-------------------------||--9/-10----9----2--6--7--|--9--7--6----------7--|--9--10--12--14----------||-------------------------|----------------------|-------------------------||-------------------------|----------------------|-------------------------||-------------------------|----------------------|-------------------------||
Tap to rate this tab
 
# A B C D E F G H I J K L M N O P Q R S T U V W X Y Z