Ozzy Osbourne - Tears tab

#----------------------------------PLEASE NOTE---------------------------------#
#This file is the author's own work and represents their interpretation of the #
#song. You may only use this file for private study, scholarship, or research. #
#------------------------------------------------------------------------------##
Ozzy Osbourne:		Tears

3/4   time, A minor, normal tuning 

-------0-------------0-------------0-------------0---------------3---3---------3---3---------6---6---------3---3-----------5-------5-----4-------4-----7-------7-----5-------5-------7-------------3-------------6-------------7----------------------------------------------------------------------------------------------------------------------------------------
(Repeat four arpeggios above)
---0---8---0---------5---------0---8---0---------5---------------6---6---------5---5---------6---6---------5---5-------------------------5-------5-------------------5-------5-------7-------------7-------------7-------------7----------------------------------------------------------------------------------------------------------------------------------------
-------0-------------0-------------0-------------0---------------1---1---------1---1---------3---3---------3---3-----------2-------2-----2-------2-----4-------4-----4-------4-------3-------------3-------------3-------------3----------------------------------------------------------------------------------------------------------------------------------------
-------0-------------0-------------------------------------------1---1---------3---3---------------------------------------2-------2-----4-------4-----------------------------------2-------------2-------------------------------------------------------------------------0-2-3-----2---0---------------------------------------------------0-4----------------------
-------0-------------0-------------0-------------0---------------3---3---------3---3---------6---6---------3---3-----------5-------5-----4-------4-----7-------7-----5-------5---------------------3-------------6-------------------------------0-----------------------------------------0----------------------------------------------------------------------------
(Repeat four arpeggios above)
---0---8---0-----0---8---0-------5-7-5---------5-7-5-------------6---6---------6---6-------5-------5-----5-------5-------------------------------------------------------------------0-------------0-------------------------------------------------------------------------3-------------3----------------------------------------------------------------------------
-------0-------------0-------------1-------------0---------------3---3---------3---3---------3---3---------1---1-----------2-------2-----1-------1-----2-------2-----2-------2-------------------------------------------------------------------2---------------------------0-------------0-------------------------------0--------------------------------------------
---0---8---0-----0---8---0-------5-7-5---------5-7-5-------------6---6---------6---6-------5-------5-----5-------5-------------------------------------------------------------------0-------------0-------------------------------------------------------------------------3-------------3----------------------------------------------------------------------------
-------7-------------4-------------1-----------------------------6---6---------3---3---------0---0-----------3-------------7-------7-----4-------4-----1-------1-------1---1---------6-------------3-------------0---------------3-------3-------------------------------------------------2----------------------------------------------------------------------------
-------------------------------------------------------------------3-------------0-------------1-------------0---------------4---4---------1---1---------2---2---------1---1-----------3-------3-----0-------0-----2-------2-----2-------2-------------------------------------------------------------------4-------------1-------------0-------------0----------------
---------------------0-----------0-5-7-----8-----------------------1-----------1---1-------1-----3-----5---------------------2---2-------2-------2---2---------------------------------2-------2---2---------------------------------------------0----------------------------------------------------------------------------------------------------------------------
(Closes with a faint open A string)
Tap to rate this tab
 
# A B C D E F G H I J K L M N O P Q R S T U V W X Y Z