I Dont Wanna Stop tab with lyrics by Ozzy Osbourne - Easy chords and tabs for guitar

Ozzy Osbourne – I Dont Wanna Stop tab

Ozzy Osboure - I Don't Wanna Stop

I know theres four guitars but i'm olny going to do the main stuff, it's not just one of 
guitars it's a bit of all four but if u listen close it is right, execpt for maybe the solo.:)

Also, it's on advance because of the Solo

Tuning - Drop C (CGCFAD)

|------------------------------------------------||------------------------------------------------||--7--------5---------(5)--(5)-------------------||--7--------5---------(5)--(5)-------------------||--5--------3---------(3)--(3)-------------------||------------------------------------------------|
|-------------------------------------------------||-------------------------------------------------||-/10--------7---------(7)--(7)-------------------||-/10--------7---------(7)--(7)-------------------||--/8--------5---------(5)--(5)-------------------||-------------------------------------------------|
|--------------------------------------||--------------------------------------||--------------------------------------||--------------------------------------||-----------------------------------3--||--5p3p0-3-5-3-0-0-0--5p3p0-3-5-3-0----|
|--------------------------------------||--------------------------------------||--------------------------------------||--------------------------------------||----------------------------------3P--||-5p3p0-3-5-3-0-0-0--5p3p0-3-5-3-0-----|
|--------------------------------------||--------------------------------------||--------------------------------------||--------------------------------------||-----------------------------------3--||--5p3p0-3-5-3-0-0-0--5p3p0-3-5-3-0----|
|---------------------------------------||---------------------------------------||---------------------------------------||---------------------------------------||----------------------------------3P---||-5p3p0-3-5-3-0-0-0--5p3p0-3-5-3-0------|
Pre-Verse|-----------------------------------------------------------------||-----------------------------------------------------------------||-----------------------------------------------------------------||0----0----0------0----5-5--------3----3----3-----/6p5p3----------||0----0----0------0----3-3--------0----0----0------------5-3------||0----0----0------0---------------0----0----0---------------6p5p3-|
Verse|-----------------------------------------------------------------||-----------------------------------------------------------------||-----------------------------------------------------------------||-0----0----0------0----5-5--------3----3----3----/6p5p3----------||-0----0----0------0----3-3--------0----0----0-----------5-3------||-0----0----0------0---------------0----0----0--------------6p5p3-|
|-------------------------------------------------------------||-------------------------------------------------------------||-------------------------------------------------------------||-0-----0----0----------0----5-5------------/6p5p3------------||-0-----0----0----------0----3-3-------------------5-3--------||-0-----0----0----------0------------------------------6p5p3--|
|---------------------------------------------||---------------------------------------------||-7-----5------(5)--(5)-----------------------||-7-----5------(5)--(5)------/6p5p3-----------||-5-----3------(3)--(3)-------------5-3-------||---------------------------------------6p5p3-|
|---------------------------------------------||---------------------------------------------||-10-----7------(7)--(7)----------------------||-10-----7------(7)--(7)-----/6p5p3-----------||--8-----5------(5)--(5)------------5-3-------||---------------------------------------6p5p3-|
|--------------------------------------||--------------------------------------||--------------------------------------||--------------------------------------||-----------------------------------3--||--5p3p0-3-5-3-0-0-0--5p3p0-3-5-3-0----|
|---------------------------------------||---------------------------------------||---------------------------------------||---------------------------------------||-----------------------------------3P--||-5p3p0-3-5-3-0-0-0--5p3p0-3-5-3-0------|
|--------------------------------------||--------------------------------------||--------------------------------------||--------------------------------------||-----------------------------------3--||--5p3p0-3-5-3-0-0-0--5p3p0-3-5-3-0----|
|--------------------------------------||--------------------------------------||--------------------------------------||--------------------------------------||----------------------------------3P--||-5p3p0-3-5-3-0-0-0--5p3p0-3-5-3-0-----|
|-----------------------------------------------------------------||-----------------------------------------------------------------||-----------------------------------------------------------------||-0----0----0------0----5-5--------3----3----3----/6p5p3----------||-0----0----0------0----3-3--------0----0----0-----------5-3------||-0----0----0------0---------------0----0----0--------------6p5p3-|
|-------------------------------------------------------------||-------------------------------------------------------------||-------------------------------------------------------------||-0-----0----0----------0----5-5------------/6p5p3------------||-0-----0----0----------0----3-3-------------------5-3--------||-0-----0----0----------0------------------------------6p5p3--|
|---------------------------------------------||---------------------------------------------||-7-----5------(5)--(5)-----------------------||-7-----5------(5)--(5)------/6p5p3-----------||-5-----3------(3)--(3)-------------5-3-------||---------------------------------------6p5p3-|
|---------------------------------------------||---------------------------------------------||-10-----7------(7)--(7)----------------------||-10-----7------(7)--(7)-----/6p5p3-----------||--8-----5------(5)--(5)------------5-3-------||---------------------------------------6p5p3-|
|--------------------------------------||--------------------------------------||--------------------------------------||--------------------------------------||-----------------------------------3--||--5p3p0-3-5-3-0-0-0--5p3p0-3-5-3-0----|
|----------------------------------------||----------------------------------------||----------------------------------------||----------------------------------------||----------------------------------3P----||-5p3p0-3-5-3-0-0-0--5p3p0-3-5-3-0-------|
|--------------------------------------||--------------------------------------||--------------------------------------||--------------------------------------||-----------------------------------3--||--5p3p0-3-5-3-0-0-0--5p3p0-3-5-3-0----|
|----------------------------------------||----------------------------------------||----------------------------------------||----------------------------------------||----------------------------------3P----||-5p3p0-3-5-3-0-0-0--5p3p0-3-5-3-0-------|
|--------------------------------------||--------------------------------------||--------------------------------------||--------------------------------------||-----------------------------------3--||--5p3p0-3-5-3-0-0-0--5p3p0-3-5-3-0----|
|--------------------------------------||--------------------------------------||--------------------------------------||--------------------------------------||----------------------------------3P--||-5p3p0-3-5-3-0-0-0--5p3p0-3-5-3-0-----|
Wait
|-------------------------||-------------------------||-------------------------||----/6p5p3---------------||-----------5-3-----------||---------------6p5p3-----|
Wait
|-------------------------||-------------------------||-------------------------||----/6p5p3---------------||-----------5-3-----------||---------------6p5p3-----|
Solo
|-13pb15r(13)-(13)p15(13)-12-10-8-12-10-8--------------------------------||-------------------------------------------13-11-10-13-11-10------------||-------------------------------------------------------------14-12-10---||----------------------------------------------------------------------14||------------------------------------------------------------------------||------------------------------------------------------------------------|
|----------------------------------12-------12-13-15-13-12-13p12---||-10h11-10-11-13-10-11-13-15p13-15----13-15------------------------||------------------------------------------------------------------||------------------------------------------------------------------||------------------------------------------------------------------||------------------------------------------------------------------|
|-------------------10---------------10-------------10-------10------------||-13p10h13p10h13p10----10-13b15(13)----13-10----------13-10----13-10-------||---------------------------------------------12b14-------------------12-14||--------------------------------------------------------------------------||--------------------------------------------------------------------------||--------------------------------------------------------------------------|
|-10-------10-----------------------10-13-15p13-15p13p10-13p10-||----13p10----13p10-15-15-15-(15)------------------------------||--------------------------------------------------------------||--------------------------------------------------------------||--------------------------------------------------------------||--------------------------------------------------------------|
|----10-13-12h13p-12-10h12p-10----10------10h12p10-10-10--------------||-13---------------------------13------13----------------13b15-(13)---||---------------------------------------------------------------------||---------------------------------------------------------------------||---------------------------------------------------------------------||---------------------------------------------------------------------|
|-------10-------------10-------------10----------------------------------||-(13)-----13p10----------13p10----------13p10-12b13-(12)----(12)----13---||----------------12b14----------12b14----------12b13-(12)-----------------||-------------------------------------------------------------------------||-------------------------------------------------------------------------||-------------------------------------------------------------------------|
|--------------------------------------------------------------------------||--------------------------------------------------------------------------||-(16)--12pb14-(12)-10-17b19----(17)-----(17)----12pb14--(12)---10-16b17---||--------------------------------------------------------------------------||--------------------------------------------------------------------------||--------------------------------------------------------------------------|
|--------------------------------------||--------------------------------------||10-17b19(17)r-12pb14-(12)---10-16b17--||--------------------------------------||--------------------------------------||--------------------------------------|
|--------------------------------------------------------------------------||--------------------------------------------------------------------------||-(16)-12pb14(12)-10---17b19(17)-12pb14-(12)-10-16b17(16)-12pb14(12)-------||--------------------------------------------------------------------------||--------------------------------------------------------------------------||--------------------------------------------------------------------------|
|-------------------------||-------------------------||-10-16b17(16)r-12b14(12)-||-------------------------||-------------------------||-------------------------|
|-------15p13\-3/-15p13-15p13--15p13-15-12h13h15-12h13h15-13p10-10h13p10---||------------------------------------------------------------------------13||-(12)---------------------------------------------------------------------||--------------------------------------------------------------------------||--------------------------------------------------------------------------||--------------------------------------------------------------------------|
|-10----------------------------------------------------||----10h13p--10----10-------------------12b13--(12)-----||---------------12----12h13-10----------12b13--(12)-----||------------------------------12-(12)\-----------------||-------------------------------------------------------||-------------------------------------------------------|
|--------------------------------------||--------------------------------------||--------------------------------------||--------------------------------------||-----------------------------------3--||--5p3p0-3-5-3-0-0-0--5p3p0-3-5-3-0----|
|----------------------------------------||----------------------------------------||----------------------------------------||----------------------------------------||----------------------------------3P----||-5p3p0-3-5-3-0-0-0--5p3p0-3-5-3-0-------|
|--------------------------------------||--------------------------------------||--------------------------------------||--------------------------------------||-----------------------------------3--||--5p3p0-3-5-3-0-0-0--5p3p0-3-5-3-0----|
|---------------------------------------||---------------------------------------||---------------------------------------||---------------------------------------||----------------------------------3P---||-5p3p0-3-5-3-0-0-0--5p3p0-3-5-3-0------|
|--------------------------------------||--------------------------------------||--------------------------------------||--------------------------------------||-----------------------------------3--||--5p3p0-3-5-3-0-0-0--5p3p0-3-5-3-0----|
|----------------------------------------||----------------------------------------||----------------------------------------||----------------------------------------||----------------------------------3P----||-5p3p0-3-5-3-0-0-0--5p3p0-3-5-3-0-------|
|--------------------------------------||--------------------------------------||--------------------------------------||--------------------------------------||-----------------------------------3--||--5p3p0-3-5-3-0-0-0--5p3p0-3-5-3-0----|
|--------------------------------------||--------------------------------------||--------------------------------------||--------------------------------------||----------------------------------3P--||-5p3p0-3-5-3-0-0-0--5p3p0-3-5-3-0-----|
Have Fun! --Legend-- / - Slide Right \ - Slide Left p - Pull-Off h - Hammer-On pb - Pre-Bend b - Bend P - Pinch Harmonic A Number Inbeetween () - Do It If You Want To
Please rate this tab:
x1.0