Ozzy Osbourne – Close Your Eyes Forever tab

Ozzy Osbourne And Lita Ford
Close My Eyes Forever 
Tabbed by Cris               

I would have to say this is one of my best pieces. It took my a while to
figure it out. If there are any problems please let me know. ENJOY!!! :D


Intro:|---------0---------------0-------|---------------------------------||-----------0---------------0-----|-----0-----0---------0-----0-----||-----5-------5-------5-------5---|---7-----7-----7---7-----7-----7-||---7---7-------7---7---7-------7-|-5-----5-----5---5-----5-----5---||-0---------------0---------------|---------------------------------||---------------------------------|---------------------------------|
|------------------------0-------||-----0-----0---------0----0-----||---5-----5-----5---5--------5---||-3-----3-----3---3-----3------7-||--------------------------------||--------------------------------|
|---------0---------------------||-----------0----------5--------||-----5-------5-------5----7----||---7---7-------7---7----5---5--||-0---------------0-------------||-------------------------------|
Verse:|---------0---------------0-------|---------------------------------||-----------0---------------0-----|-----0-----0---------0-----0-----||-----5-------5-------5-------5---|---7-----7-----7---7-----7-----7-||---7---7-------7---7---7-------7-|-5-----5-----5---5-----5-----5---||-0---------------0---------------|---------------------------------||---------------------------------|---------------------------------|
|----------------------------0---||----0-----0---------0-----0---0-||--5-----5-----5---5-----5-------||3-----3-----3---3-----3---------||--------------------------------||--------------------------------|
|---------0---------------------|---------0---------------0-------||-----------0-----------------0-|-----------0---------------0-----||-----5-------5-------5-----7---|-----5-------5-------5-------5---||---7---7-------7---7---7-5-----|---7---7-------7---7---7-------7-||-0---------------0-------------|-0---------------0---------------||-------------------------------|---------------------------------|
|--------0------------------------||----0-----0---------0-----0---0--||--7---------7-----7-----7---0----||5-----5-------5-5-----5----------||---------------------------------||---------------------------------|
|-------------------------0-------|---------0--------------------||-----0-----0---------0-----0-----|-----------0----------------0-||---5-----5-----5---5---------5---|-----5-------5--------5-------||-3-----3-----3---3-----3-------3-|---7---7-------7----7------7--||---------------------------------|-0----------------0------0----||---------------------------------|------------------------------|
|---------------------------------|--------0-------------------------|||-------0-------------------------|----------0-----3-----1-----0-----|||-----2---2-----------2-----2---0-|-----2------2-----2-----2------0--|||---3-------3-------3-----3-------|---2---2------2-----2-----2-------|||-3-----------3---3-----3-----3---|-0--------------------------------|||---------------------------------|----------------------------------||
|-------------------------------||------0------------------------||----2---2----------2------2----||--3-------3------3------3------||3-----------3--3------3-----3--||-------------------------------|
1st time |-------------------------0--------|-----------0-------------0-||---3---------3-----3-------0------|---------0---0-----------0-||---------0-----0-------0--------0-|-------0-------0-------0---||-------5---5---------5-------5----|-----5---------------5-----||-----5----------------------------|---5---------------5-------||-3---------------3----------------|-3---------------3---------|
2nd time|---------------------------------||--3-0---0---------3--------------||------0-----0---0-----0-----0----||----------5---------5-----5------||--------------5---------5-----5--||0--------------------------------|
|---------0---------------0--|||-----------0-------------0--|||-----0-------0---------0-0--|||---2---2-------2-----2---2--|||-------------------2--------|||-0---------------0----------||
Bridge:|-------|------|------|-------|------|------|------|------|||-------|------|------|-------|------|------|------|-2----|||--3----|-3----|-7----|-5-----|-3----|-3----|-7----|-2----|||--3----|-5----|-7----|-5-----|-3----|-5----|-7----|-2----|||--1----|-5----|-5----|-3-----|-1----|-5----|-5----|-0----|||-------|-3----|------|-------|------|-3----|------|------||
|-------------------------------------|-----------------------------||----------------------------15-15-15-|15\13-13-13-13\12-11-11-11\10||----------------------------15-15-15-|15\14-14-14-14\12-12-12-12\10||-8-10-8-7-8-7-8~~~~~~~~~~------------|-----------------------------||-------------------------------------|-----------------------------||-------------------------------------|-----------------------------|
---------------|-10-10-11------|-10-10-12-12^b-|---------------|---------------|---------------|
|------------------17-|-17----17------------------------------------||-15^b-13-------12----|----12---------------------------------------||---------14~~~~------|----------12^b-12~~~-------------------------||---------------------|----------------------8-10-8-7-8-7-8~~-------||---------------------|---------------------------------------------||---------------------|---------------------------------------------|
------------|---15-15-15-|---15-15-15-|------------|------------|------------|
|---------------------------------------------|------------------------||-15\13-13-13-13\11-11-11-11\10-10-10-11------|-15^b-13----------------||-15\14-14-14-14\12-12-12-12\10-10-10-12-12^b-|---------14~~~~~-----19-||---------------------------------------------|------------------17----||---------------------------------------------|------------------------||---------------------------------------------|------------------------|
-----------------------|-----------------0---|-----------------------|-13~---------0-------|-19-----19-----18~~~~~~|----------5----------|-----17-----17---------|-------0-------------|-----------------------|---------------------|-----------------------|---------------------|
Please rate this tab:
x1.0