Ozzy Osbourne - Ozzmosis tab

Band- Ozzy Osbourne
Album- Ozzmosis

1.PERRY MASON

INTRO:|----------------------5--|---------------------6---||----5-----------5--------|---5-----------5---------||--7-----7-----7-----7----|-7-----7-----7-----7-----||----------7--------------|---------7---------------||-------------------------|-------------------------||-------------------------|-------------------------|
Bass: (standard tuning)g--------------------------------------------------|d---------------7-6-5-------------------7-6-6------|a-5-0-3-5-0-3-5-------8-7-5-0-3-5-0-3-5-------8-7--|e--------------------------------------------------|
e------------------------------------------------------------------|b--6--------6--6----------6-------6--6--6--------------------------|g--5--------5--5----------5-------5--5--5--------------------------|d--4--------4--4----------4-------4--4--4--------------------------|a--5--------5--5----------5-------5--5--5--------------------------|d------------------------------------------------------------------|
|------------------------------------------------------------------||-3----5----6----8--10-------------------------HH------------------||-5^---7^---8^--10^-12^--3----------\\\\-5-5---5-------PH----------||------------------------3----------\\\\-5-5--------7---7----------||------------------------1----------\\\\-3-3--------0--------------||-------------------------------------------------------5----------|
|-10---------------------------10----------------------------------||-x----------------------------x-----------------------------------||-7--7-------------------------7--7--------------------------------||----0----3/5--------6-5-3h5------0----3h5-------------------------||---------3/5--------6-5-3h5-----------3h5--------6---PH-----------||------0--3/5---0-0--6-5-3h5-0------0--3h5---0-0--6-5-3~~----------|
|---------------------------------------------------------------------||-------------------3--------------------3----------------------------||-------------------2--------------------2----------------------------||-5-5-5-5-5-5-0-0-0-0--5-5-5-5-5-5-0-0-0-0--5-5-5-5-5-5-5-5-----------||-5-5-5-5-5-5-0-0-0-0--5-5-5-5-5-5-0-0-0-0--5-5-5-5-5-5-5-5-----------||-5-5-5-5-5-5-0-0-0-0--5-5-5-5-5-5-0-0-0-0--5-5-5-5-5-5-5-5-----------|
|---------------------------||---------------------------||---------------------------||-5-3-4-5-3-4-5-6-5-3-5-0---||-5-3-4-5-3-4-5-6-5-3-5-0---||-5-3-4-5-3-4-5-6-5-3-5-0---|
"Calling perry mason again.............again....again.."|------------------------|----------------------------------||------------------------|--------PH------------------------||------PH----PH----------|--------9~~~--PH------------------||-3----3~~~--2~~~--PH----|-3------------5~~~----------------||-1----------------4~~~--|-1-----------------2--3--5\-------||------------------------|-------------------2--3--5\-0-----|
"Wake me when it's over|-----------------------------------------------------------||-----------------------------------------------------------||-----------------------------10~~~~~---10h12p10------------||-3---------2-----------------------------------------------||-1---------0--5---------2--8-------------------------------||--------------5---------2----------------------------------|
|-------------------------------------------------10\-------||-----------------------------------------------------------||-12^~~~-12^~~~--15~~~~~~~~-14~~~~-12-----9~~~~~------------||-----------------------------------------------------------||-----------------------------------------------------------||-----------------------------------------------------------|
SOLO:|---------x-x-|--13---------|-------------------------|just keep bending back and forth|-6-6-6-6-x-x-|--13-----13--|-13----------------------||-5-5-5-5-----|--12^----12^-|-12^-^-^-^-^-^-^-^-^-^^--||-x-x-x-x-----|-------------|-------------------------||-5-5-5-5-----|-------------|-------------------------||-------------|-------------|-------------------------|
|-----------------------|---------------|-------------------||-----------------------|---------------|-------------------||-12p10---------9-10-12-|-9h10-9--6h7-6-|-------------------||-------12~~-12---------|---------------|-------------------||-----------------------|---------------|-------------------||-----------------------|---------------|-------------------|
|-tap on"9"----on "10"--------------on "12"-----------------||-----------------------------------------------------------||-9676-9676-976-107-10767-107-10767-127-12767-127-12767-----||-----------------------------------------------------------||-----------------------------------------------------------||-----------------------------------------------------------|
|--------------------------------------------------------------------------------------||--------------------------------------------------------------------------------------||-147-14767-147-14767-17p7-177147-17p7-177147-197-197-197-1975-21p7-21p7p5-19p7-21p7p5-||--------------------------------------------------------------------------------------||--------------------------------------------------------------------------------------||--------------------------------------------------------------------------------------|
|-15^-^~~~~--15^-^p13|-15--13~~--12h13--12\--10-|-----------||------------15^-----|--------------------------|-----------||--------------------|--------------------------|-----------||--------------------|--------------------------|-----------||--------------------|--------------------------|-----------||--------------------|--------------------------|-----------|
|15p13p10--------10-15p13p10--------10-15p13p10---------10--||--------13-10-13-----------13-10-13-----------13-10-13-----||-----------------------------------------------------------||-----------------------------------------------------------||-----------------------------------------------------------||-----------------------------------------------------------|
|16p15p13--------13-------------------17p15p13--------13-17p15p13--------||--------15-13-15-----------------------------15-13-15-------------------||---------------------*-/--------*-/------------------------------16^----||----------------------/----------/--------------------------------------||---------------------/--*-------/--*------------------------------------||------------------------------------------------------------------------|
|--------------13^-^(13)-10-|-----10---1010----------10--10-10-||-13^~~~~~~~~--13^-^(13)----|-13^--------13^-^-^-^-^-13^-13-13-||---------------------------|-------13-------------------------||---------------------------|----------------------------------||---------------------------|----------------------------------||---------------------------|----------------------------------|
|---------------------------|----------13-------------------||-10-----------12--10-12----|------13-----13-13-------------||-10-----------12--10-12-10-|-12^------------12^------------||-----12-10-12--------------|--------------------------17\--||---------------------------|-------------------------------||---------------------------|-------------------------------|
|----------------------------------------------------------------------||----------------------------------------------------------------------||-------141517------141517------141517------141517------141517---------||-141517------141517------141517------141517------141517------14\--/15-||----------------------------------------------------------------------||----------------------------------------------------------------------|
|-------------------------------13-17p13-15p13--13----------||-----------------13h15-15-13-15--------------15--17^--^(17)||----141517-141518------------------------------------------||-17--------------------------------------------------------||-----------------------------------------------------------||-----------------------------------------------------------|
|-----------------------------------------||-----------------------------------------||-----------------------------------------||-0-0-0-3^--0-0-0-5^--0-0-0-3^--0-5-0-6\5-||-0-0-0-x---0-0-0-x---0-0-0-x---0-x-0-x---||-0-0-0-3^--0-0-0-5^--0-0-0-3^--0-5-0-6\5-|
2.I JUST WANT YOU
This is the main riff. You will use it alot. Play it over and over again.-----------------0-------------|---3-----2---------0---------3-|-----4-----2---------0-----4---|-------2-----2-----------4-----|-2---------------------2-------|---------------0---------------|
Here are the parts that you WILL NOT play the main riff on:
I don't ask much....-0------------------------------------------|-0-0-3--------------------------------------|-0-----4-4----2-2-2-------------------------|-2-----4-4----2-2-2----2-2------------------|-2-----2-2----0-0-0----2-2---4^-(vibrato)-0-|-0---------3^-------2^-0-0-0----------------|
I'm sick and tired....---0---0---0---0---0---0---0---0-1-0---0---0---0---0---|---0---0---0---0---0-1-0-2-0-4-0---0-4-0-2-0-1-0---0---|-------------2---4-------------------------------4---2-|-2---4---5---------------------------------------------|-------------------------------------------------------|-------------------------------------------------------|
SOLO:-----------------------------------------------------/1-5-/6-10/14-14-12-9^-6-12^-|------------------------------------------2(vibrato)------------------------------|-----------------------------2/4(vibrato)-----------------------------------------|--------------0-2(vibrato)/4------------------------------------------------------|-0h2(vibrato)---------------------------------------------------------------------|----------------------------------------------------------------------------------|
-12^-12^-12^-10-6(vibrato)-12^-^-^-^-^-^12-10-6-12-10-12^10-6----------------------|--------------------------------------------------------------------2--------------|------------------------------------------------------------------2---2-4(vibrato)-|--------------------------------------------------------------2h4------------------|-----------------------------------------------------------------------------------|-----------------------------------------------------------------------------------|
----------------5-7----7--------------------10^-7-0-7-------------------------------|-4^-^4p2p-4^-4^-----4^---4(vibrato)-2-4-2-------------4(vibrato)-2-4-4p2------------|------------------------------------------4------------------------------4(vibrato)-|------------------------------------------------------------------------------------|------------------------------------------------------------------------------------|------------------------------------------------------------------------------------|
---0-7-2-5-7-2-5-7-2-5-7-2-5-7-5-7-7-7-2-5-7-2-5-7-2-5-7-2-5-7-2--------------------|-2----------------------------------------------------------------------------------|------------------------------------------------------------------------------------|-----------------------------------------------------------------------3/4-4-4-4/5--|-----------------------------------------------------------------------xh--x-x-xh---|-----------------------------------------------------------------0-0-0-1/2-2-2-2/3--|
--------------------------------------------------------10-7-5-7-5-2-5-2-0-2-0-----|-------------------------------------------------------------------------------2-4-|-----------------------------------------------------------------------------------|-5-5-5/7-7-7-7/9-9-9-9/11-11-11-11/12-12-12-12/14-14-14----------------------------|-x-x-xh--x-x-xh--x-x-xh---x--x---xh---x--x---xh---x--x-----------------------------|-3-3-3/5-5-5-5/7-7-7-7/9--9--9---9/10-10-10-10/12-12-12----------------------------|
----------------------------------------------------------------10-7-5-7-5-2-5-2-0-|-2---2-----------------------------------------------------------------------------|---4---4-2-4-2---2-----------------------------------------------------------------|---------------4---14/16-16-16-16\14-14-14-14\12-12-12\11-11-11--------------------|--------------------xh---x--x---xp---x--x---xp---x---x-x--x--x---------------------|-------------------12/14-14-14-14\12-12-12-12\10-10-10\9--9--9---------------------|
-2-0----------------------------------------------------------------------------------|-----2-4-2---2------------------------------------------------------------------------|-----------2---4-2-4-2---2------------------------------------2^(vibrato)-4^(vibrato--|-----------------------4--------------------------------------------------------------|---------------------------11\9-9-9-9\7-7-7-7/9-9-9-9-\-8-/-9-------------------------|----------------------------9\7-7-7-7\5-5-5-5/7-7-7-7-\-6-/-7-------------------------|
-------------------------5^(vibrato0-7^(vibrato)-8^(vibrato)-10^(vibrato)-|-0^(vibrato)-2^(vibrato)--------------------------------------------------|--------------------------------------------------------------------------|--------------------------------------------------------------------------|--------------------------------------------------------------------------|--------------------------------------------------------------------------|
-12^(vibrato)-12-10-4/6----------------|------------------------4-2------------|----------------------------4(vibrato)-|---------------------------------------|---------------------------------------|---------------------------------------|
There are no unachievable....---2-----1-------4-----------2-----1h2-----2h1-----4--------------------|-----3-----1-------4-------3-------------------1-----4------------------|-------3-----1-------4---3-------3-------1-------------4----------------|-1---------------------1-------1-------------------------3/4-3(vibrato)-|---------------------------------------4-----------------xh--x----------|---------------4---------------------------------4-------1/2-1----------|
3.GHOST BEHIND MY EYES
|--------0--0----------0--|-----------------------0---------||------0------0-----------|--------0--------------------0---||-0h1---------------------|----------2--------2-------------||-------------------2-----|-----4------4--------2-----------||---------------3/4-------|-4/5----------5\4----------------||-0-----------------------|---------------------------------|
|----------0--------------0-|-------------------------0-----||-------------0-----------0-|---------0---------------0-----||----0h1--------1---------2-|-------0---0-------------2-----||---------------------2-----|-----4-------4-------2---------||-----------------3/4-------|-4/5-----------5-5\4-----------||-0-------------------------|-------------------------------|
"The spiders dancing on the wall..."|-0----2---|-0--------------------|-0---2-------------------||-0----3---|-0------0---0---0---0-|-0---3-------------------||-0----2---|-1--------------------|-0---2-----2-2-2---------||-2----0---|-2----5---4---2---0---|-2---0-----2-2-2---------||-3--------|-2--------------------|-3---------0-0-0---------||----------|-0--------------------|-------------------------|
"And it is you..." 1)=============||-0--0----------0-----|-----0----------0-----|--------------||-0----0----------0---|-------0----------0---|-2------------||-1-----------4-----4-|---4---------4------4-|-2------------||-2---------4---------|----------------------|-2--/7-6-----5||-2------/6-----------|-4---------2----------|-0-------0-4--||-0-------------------|----------------------|--------------|
2)==========================================================||-3----3-----0-------------|-3----3------0------------------||-3----3-----0-------3-----|-3----3------0------------------||-0----2-----1-----0---0---|-0----2------1------------------||-0----2-----2---4-------4-|-0----2------2--/7-6-----5------||-2----0-----2-------------|-2----0------2-------0-4--------||-3--------x-0-------------|-3---------0-0------------------|
"I wish to god that i could sleep again..."|-0-----------|-----------------0-----------|---------------||---0---------|-----0---0---0-----0---------|---0-----------||-----2-------|-------4---4---------4-------|-----2---------||-------3--3--|-----------------------5-\-3-|-------3-------||-------------|-----------------------------|---------------||-------------|-----------------------3-\-1-|---------------|
|-----0-------0----------|----------------------------------||-------0-----0----------|----------------------------------||---------4---4----------|--------------------4---4---4-----||-----------5-5----------|----------------------------------||------------------------|----------------------------------||------------------------|----------------------------------|
SOLO:|-----------------------------------------------------------||-9-------7-------10-------9-----\---1----3-----1---0--3/9--||-----------------------------------------------------------||-----------------------------------------------------------||-----------------------------------------------------------||-----------------------------------------------------------|
|-----------------------------------------------------------||-9-9--10--10/12-------10------9-----9/17-----17\5----8-7--5||-----------------------------------------------------------||-----------------------------------------------------------||-----------------------------------------------------------||-----------------------------------------------------------|
|-----------------|----------------|------------------------||-5------4--3--2--|-1----3----1----|-0----3-/-9-------------||-----------------|----------------|------------------------||-----------------|----------------|------------------------||-----------------|----------------|------------------------||-----------------|----------------|------------------------|
|-----------------------------------------------------------||-5-----/8--7----\5---5-------------------------------------||-----------------------------------------------------------||-----------------------------------------------------------||-----------------------------------------------------------||-----------------------------------------------------------|
ENDING:|-0------------|---------0------------0---|-------0--------0|-------------||-0------------|-----------0----------0---|------0-0-------0|----------0--||-1------------|-------x-----0------2-----|---0h1---1-----2-|-------0-----||-2----------2-|-----4------------2-------|--------------2--|-----4-------||-2--/4--4-4---|-4/5-----------/4-------2-|-----------3/4---|-4/5---------||-0------------|--------------------------|-0---------------|-------------|
4.THUNDER UNDERGROUND
|-----------------------------------------------------------||-----------------------------------------------------------||-----------------------------------------------------------||-----------------------------------------------------------||-0-0-5-x-0-0-5-x-0-0-5-x-0-0-5-3/5-3/5---------------------||-0-0-5-x-0-0-5-x-0-0-5-x-0-0-5-3/5-3/5---------------------|
Chorus:|5----3------------3---5------------------------------------||5----3------------3---5------------------------------------||7----5------------5---7------------------------------------||7----5------------5---7------------------------------------||5----3------------3---5------------------------------------||-----------------------------------------------------------|
| ||-----------------------------------------------------------||3----3-----------------3-----------------------------------||2----0-----------------2-----------------------------------||0----x-----------------0-----------------------------------||0----3-----------------0-----0-0-0-0-0-0-0-----------------||0-----------------3^-0-0-----0-0-0-0-0-0-0-----------------|
2nd Verse: ( the "2.6" is the harmonic inbetween the 2 and 3 fret)|-----------------------------------------------------------||-----------------------------------------------------------||-----------------------------------------------------------||-----------------------------------------------------------||-0-0-----0-0-----0-0-----0-0-----/6-/6---------------------||-0-0-2.6-0-0-2.6-0-0-2.6-0-0-2.6-/6-/6---------------------|
"Could it be that i have found my mind or have i gone insane"|---------------------|--------------------||-------------------------||---------------------|-------------repeat-||-------------------------||-------------------0-|--------------------||-------0---------0-7\5/7-||-2--0--2--0----2h3---|-2--0--2--0---2p0-0-||-3-------3---5-----7\5/7-||---------------------|--------------------||-------------------5\3/5-||-------------2-------|------------2-------||---3-3-----5---5---------|
SOLO:|----------------------|--------------3h4p3---3-4p3---------||-6--6--6-----5--------|--------------------6-------6-------||-8^-8^-8^-8^-7^--^7p5-|-5^---5^--5^------------------------||----------------------|------------------------------------||----------------------|------------------------------------||----------------------|------------------------------------|
|------------------|----------------------------------------||-6--6--6---8--5---|-3--------------------------------------||-8^-8^-8^-10^-7^--|-5^--5^--5-------------------5-7--------||------------------|--------------333555333777777-----------||------------------|-----------555--------------------------||------------------|----------------------------------------|
|-13^-------------------------------------10---||-13^------------10-13---10-13---10-13----10---||-----12-10-12^-------12^-----12^-----12^------||----------------------------------------------||----------------------------------------------||----------------------------------------------|
|----------------------------|-----------------------------------------||-13^---13^--13^--13^--13^~~-|-10-14---10-14---10-14-----10-14--10-14--||----------------------------|------13-------13-----13-13-----13-----13||----------------------------|-----------------------------------------||----------------------------|-----------------------------------------||----------------------------|-----------------------------------------|
|--------------------/20-|--21--22--------------||--------------------/20-|--21--22--------------||-/11--/13--/14--/15--==-|--==--==--------------||-/12--/14--/15--/15--==-|--==--==--------------||--==---==---==---==-----|----------x-x---x-x---||--==---==---==---==-----|----------x-x---x-x---|end solo
add this at the end of the main riff|----------------||----------------||----------------||-----0-3p0------||-0-3-------3-0--||----------------|
5.SEE YOU ON THE OTHER SIDE Standard
|-0-------|-------------------------|-------------------------||---3-----|-------------------------|-------------------------||-----0---|-------------------0-----|-------------------0-----||-------4-|---0---2-----4-------4---|---0---2-----4-------4---||---------|-----2---2-----2-------2-|-----2---2-----2-------2-||---------|-3---------3-----3-------|-3---------3-----3-------|
|-------------------------|---------------------------||-------------------------|---------------------------||-------------------0-----|-------------------0-------||---0---2-----4-----------|---0---2-----4-------0-----||-----2---2-----2-----0-2-|-3---3---3-3---3-3-----0---||-0---------0-----0-------|---------------------------|
"I cant seem to see you baby..." 1)=================|2)====================||------3-------3--|-----3------------||---------------------||-3----3-------3--|---3----3-3-------||---------------------||-2----0-------0--|------------0-0---||---------------------||-0----2-------0--|------------------||-3/5-----5-----5--3--||-0----3-------2--|------------------||-3/5-----5-----5--3--||--------------3--|------------------||-1/3-3-3-3-3-3-3--1--|
"Yes ill see you, see you on the other side..."|----------------------|-----0---0---0---||----------------------|-----3---3---3---||-2-------4--5---------|-----0---0---0---||-2-----x-4--5-------0-|-2---------------||-0-----x-2--3-------0-|-2---------------||----------------------|-0---------------|
SOLO:|-------------------------|---------------------------------||-------------------------|---------------------------------||-------------------------|-------12~-----------------------||----------------12-12----|-12h14------------------12-------||-------10-12/14-------14-|------------------12h14----14----||-10h12-------------------|---------------------------------|
|---------------15-------------|------------------------------||---------------15-------------|------------------------------||-------12~-----14^---14^-^p12-|-14~~--14^-^p12~~--------12-x-||-12h14------------------------|-------------------12-14------||------------------------------|------------------------------||------------------------------|------------------------------|
|---------------------------|---------------------------------||-15^---15^~~---------------|---------------------------------||---------------14^-^p12----|-14^-^-^-^-^-^-^-^-^-^-^-^p12----||------------------------14-|------------------------------14-||---------------------------|---bend up and down--------------||---------------------------|---------------------------------|
|-15-12-----------------------------------------------------||-------15-12-----------------------------------------------||-------------14--------------------------------------------||----------------14-14p12-----------------------------------||-------------------------14-14p12\10----------10-----------||-------------------------------------12-10h12----12--------|
|----------------------------------------------17^-^p15-----||-------------------------------------------15----------17--||----------------------------------12---14^-----------------||----------------------12----12h14----x---------------------||-------10-------12/14----14--------------------------------||-10h12----12/14--------------------------------------------|
|-17--17^--15~~--------15-|/20---19--19\17--17^^^-||----------------15h17----|-----------------------||-------------------------|-----------------------||-------------------------|-----------------------||-------------------------|-----------------------||-------------------------|-----------------------|
|--------15-----------------------||-18^-------18--------------------||--------------17^-17p15-0~~0~~---||------------------------17-------||---------------------------------||---------------------------------|
"Never though Id feel like this..."|------------------|-------3-------|--------------------||-----3--------3---|---------3-----|-----3---------3----||-------0----0---0-|-----------0---|-------0-----0---0--||---2-----2--------|-----0-------0-|---2-----2----------||-3--------3-------|---2-----------|-3---------3--------||------------------|-3-------------|--------------------|
|-----------------|-------------------|-------3--------||-----------------|-----3---------3---|---------3------||-----0-----2-----|-------0-----0---0-|-----------0----||---0-----0---0---|---2-----2---------|-----0-------0--||---------------0-|-3---------3-------|---2------------||-3-----2---------|-------------------|-3--------------|
"Carved In stone...carved in stone..."|----------------------|------------------------||----------------------|------------------------||-7---7-5--------------|-7---7-5----------------||-7---7-5-----4--5-----|-7---7-5-----4--5-------||-5---5-3-3-3-3--3-x-x-|-5---5-3-3-3-3--3-x-x---||----------------------|------------------------|
6.TOMORROW
|----------------------------------------------------------------------||----------------------------------------------------------------------||----------------------------------------------------------------------||----------------------------------------------------------------------||-3/5\3h1---1-----1-----1-----1-3/5-3-1---1-----1-----1-----1-3/5-3-1--||---------3---3-3---3-3---3-3-----------3---3-3---3-3---3-3------------|
|--------------------------|--------------------------------||--------------------------|--------------------------------||-----------------0--------|--------------------------------||---------0----------------|--------------------------------||---3-------3---3---/5-3-1-|---1-----1-----1-----1-3/5-3-1--||-1---1-1-----1------------|-3---3-3---3-3---3-3------------|
Chorus:|---------------------|----------------------|-------------------------||---------------------|----------------------|-------------------------||----3--2--0------0---|----3--2--0-----0-----|---3--2------------------||-------------3/5---0-|------------3/5---3~~-|------------3------2-----||---------------------|-1--------------------|---------3--3------3-----||-3-------------------|----------------------|-1-----------------------|
|---------------------------|||---------------------------|||----3--2--0--------------3-|||-------------------------3-|||-------------------------1-|||-3-----------3--3--1--3----||
"You dont hane to leave the lights on..."|-----------------|-----------------------------------------||-----------PH----|-----------------------------------------||-3---------5~~~~-|-0------PH-------------------------------||-3---------------|-0----3-5~~--3h5p3-----------------------||-1---------------|-x-----------------5-4-3p1-PH------------||-----------------|-3-------------------------3~~~----------|
"Im so used to being blind..."|-----------------|-----------------------------||-----------PH----|-------6-------8---8--~~~~---||-3---------5~~~--|-0-----8^-8^--10^-10^--------||-3---------------|-0---------------------------||-1---------------|-x---------------------------||-----------------|-3---------------------------|
"No more goodbyes or yesterday.."|---------------|--------------------||---------------|--------------------||-------------5-|--5---0-------------||-10----------5-|--5---0-------3/15\-||--8----------7-|--6---x-------------||---------------|------3-------------|
"Il;l see you tomorrow..."|-------------------------------|------------------||-----5^-^--3--------6^---------|------------------||-----5^-^--3--------------3--0-|-/15---14----12-\-||----------------5-5-------3--0-|---x----x-----x---||-3-3----------x-3-3----------x-|-/13---12----10-\-||-1-1-------------------------3-|------------------|repeat
INTERLUDE:|--------------|-------------||-----------------------------||--------------|-----------*-||-----------------------------||--------------|-------------||-----------------------------||-------3------|-------2---*-||-------2--------go to solo---||----1---------|----1--------||----1------------------------||-3------------|-3-----------||-3---------------------------|
SOLO:|-----------------|-----------------|-----------------------||-----------------|-6---------------|-6---------------------||-----------------|---5^~~~--5^-^p3-|---5^~~-----5^-^p3-----||-----------3-5p3-|-----------------|-----------------------||-----1-3/5-------|-----------------|-----------------------||-1h3-------------|-----------------|-----------------------|
|-----------------------------------|-----------------------||-----------------------------------|-----------------------||-5~~~-3~~~--3-5p3\2~~--2h3p2-------|-----------------------||-----------------------------3/5~~-|-----------------------||-----------------------------------|-----------------------||-----------------------------------|-0-1^-------(1)/-------|
|----------------------------------|------------------------||-18--------------18---------18^~~-|-18---------------------||---17^-^p15--------17^-^p15-------|---17^--15h17-15--------||------------17~~------------------|------------------------||----------------------------------|-------------------dive-||----------------------------------|-----------------0\\__//|
|-20^-^-^-^-^-^-^---20^-^-^-^-^-^-----20^-----20^-^(20)-19p18-||-----------------20---------------20------20-----------------||-------------------------------------------------------------||-------------------------------------------------------------||-------------------------------------------------------------||-------------------------------------------------------------|
|17h18p17p15-17~~~--17h18p17p15-17-15-15--------||-------------------------------------18^~~--\--||-----------------------------------------------||-----------------------------------------------||-----------------------------------------------||-----------------------------------------------|
|-------------------------------------------------------------||-8118--8118--8118--8118--8118--8118--8118--8118--8118--x-11^-||-----10----10----10----10----10----10----10----10----10------|repeat|-------------------------------------------------------------||-------------------------------------------------------------||-------------------------------------------------------------|
1st time after above figure|--------------------------|--------------------------------||--(1/2)(full)(1-1/2)------|--------------------------------||-7^-----^-----^--------7^-|-5^-^(5)p3-----3-5^~~~--x-------||--------------------------|-----------5--------------------||--------------------------|--------------------------dive--||--------------------------|--------------------------0\___-|
2nd time after avobe fig ||==== trills ====|||--------------------|-------------------|------------------|----||-3---6---1----------|-3--6---8----------|------------------|----||-5^--8^--3^---------|-5^-8^-10^-~~-/--\-|-7117-6106-595-373|-0--||--------------------|-------------------|------------------|----||-------------dive---|-------------------|------------------|----||-------------0\____-|-------------------|------------------|----|
7.DENIAL
|-----------------|------------------|-----------------|-----------------||-----------------|------------------|-----------------|-----------------||-----0-------0---|-----0-------3^---|-----0-------0---|-----0-----0---0-||---2---2---2---2-|---2---2---1----3-|---2---2---2---2-|---2---2---------||-3-------1-------|-0-------0--------|-3-------1-------|-0---------------||-----------------|------------------|-----------------|---------3---1~--|
VERSE:|-------------------|-------------------||-------------------|-------------------||-----0---------0---|-------0---------0-||-------2-----2---2-|-----2-----5-4-5---||---2-----2/3-------|-3/4-----4-3-3-3---||-0-----------------|-------------------|
"I will tell you im okay, but deep inside.."|-------------------------|-------------0---------------||-0------0--------0-------|------0--------0-----0-------||-0---------0-------0-----|----3---3--------3-----3-----||-2-----------2-------2---|----------4--------------4---|1st time - back to start|-3-------------3-------3-|-3-----------------3---------|2nd time, go to chorus|-------------------------|-----------------------------|
CHORUS: "You're in denial..."|-----PH======----=================-|-----============================||-----8-7----------8-7-----8-7------|-----8-7-------------------------||---------5~~----------5~~-----5~~--|---------4~-4-5-4h5p4-4----------||-----------------------------------|---------------------7-5-7-4-5---||-7-7----------7-7------------------|-2-2---------------------------7-||-5-5----------5-5------------------|-0-0-----------------------------|repeat
|-----------------|--------------------------||-----------------|--------------------------||-----0-------0---|-----0--------------------||---2---2---2---2-|---2---2------------------||-3-------3-------|-1-------0----------------||-----------------|-----------------3---2----|
INTERLUDE:|---------5-5-----3-3-----2-2-----0-0-|-----0-0----0-0-----0-0-----0-0---||---------5-5-----5-5-----5-5-----5-5-|-----0-0----2-2-----3-3-----5-5---||-------------------------------------|----------------------------------||-------------------------------------|----------------------------------||-----0-0-----0-0-----0-0-----0-0-----|----------------------------------||-5p3---------------------------------|-0-0-----0-0----0-0-----0-0-------|
SOLO:|-----------------------------|-----------------------------||-8p0-8~-7p0-7~-5p0-5~-3p0-3~-|-4p0-4~-3p0-3~----trill------||-----------------------------|---------------02020202020---||-----------------------------|---------------------------2/|repeat|-----------------------------|-----------------------------||-----------------------------|-----------------------------|
|--------12-14-14^---^(14)-12-|----------------------------------------------------||-15^~~-----------------------|15^-^p12-15^-^p12-15^-^p12-15^-^p12-----------------||-----------------------------|------------------------------------14^-^(14)p12----||-----------------------------|-------------------------------------------------14-||-----------------------------|----------------------------------------------------||-----------------------------|----------------------------------------------------|
|----------12-14-14^------^(14)-|---------------------------||-15^~~~~-----------------------|---------------------------||-------------------------------|-2^-^-^-^-^-^-2-2-2-2p0----||-------------------------------|------------------------2-/||-------------------------------|---------------------------||-------------------------------|---------------------------|
|------81012-----81012--------------------------------------||-81012-----81012-------------------------------------------||------------------------*-/---*-/-----*-/------------------||-------------------------/-----/-------/-------------------||------------------------/--*--/--*----/--*-----------------||-----------------------------------------------------------|
|-141517-141517-121415-121415-101214-101214-81012-81012------||------------------------------------------------------------||------------------------------------------------------------||------------------------------------------------------------||------------------------------------------------------------||------------------------------------------------------------|
---------------------------------------------------|-121315-121315-101213-101213-81012-81012-7810-7810-|---------------------------------------------------|---------------------------------------------------|---------------------------------------------------|---------------------------------------------------|
|------81012-----81012------------------------||-81012-----81012-----------------------------||------------------------*-/---*-/-----*-/----||-------------------------/-----/-------/-----||------------------------/--*--/--*----/--*---||---------------------------------------------|
|--------------------------------------------------15\------||-12~~~~~~----10--------8-------7------------------x--\-----||-------------------------------------/7~~~~~~~~~~-----\----||-------------------------------------------------------\---||--------------------------------------------------------\--||---------------------------------------------------------\-|end of solo
8.MY LITTLE MAN
|-10---------------0------------------|-----------0----------------------||-8--------------0---0----------3-2---|---------0---0--------------------||-9----------0---------2----0-------0-|-----0---------0---2-----2--------||-7--------2---2--------------2-------|---2---2---------0---0-----0------||-0------0----------------0-----------|-0---------------------4-----2----||-------------------------------------|-------------------------------3--|
|-------------0------------------|-3-----------------------0-||-----------0---0----------3-2---|---5-----3-------------0-0-||-------0---------2----0---------|-----5-----4---------2-----||-----2---2--------------2-------|-------------5-----2-2-----||--------------------0---------0-|-------0-------------------||-3/5----------------------------|---------------3/5---------|
|---------------------------|--------------5----------------||---3-3-------------5-----5-|------7-----0---5-5------------||-2-----2-------6-----6-----|--7-----7-----------4-2/4\2-2/-||---------5-----------------|----9-----9--------------------||-----------5/7---7-----7---|------------------------------0||---------------------------|-------------------------------|
|-9-----7----5----3-----|-3-------------------0---||--10----8----5----3----|--3----3-----------0-0---||----9----7----6----4-5-|---5----4--------2-------||-----------------------|----4h5--5-----2-2-------||-----0-----------------|-------------------------||----------0----0-------|-----------3/5-----------|
"Dont you know i love you more than..."|-------0---------------------|---------------0-------------||---------0-----3-----2-------|----1----3----0-0------------||---2-------2-----0-----0-----|---0----2----2---2-----------||-----2-------------2---------|--2----4----2-----2----------||-0-----------0-----------0-2-|-3----5----0-----------------||-----------------------------|-----------------------------|
|---------0---------------------|-------------------0-------||-----------0-----3-----2-------|----1----0-----------0-----||-----2-------2-----0-----0-----|---0----0------2-------2---||---2---2-------------2---------|--2----0-----2---2---------||-0-------------0-----------0-2-|-3----2----0---------------||-------------------------------|---------------------------|
"Go to sleep my little man..."|--------------------------------|--------------------------||----------1-------------3-------|-----------0--------------||-------0----0-------2-----2-0---|------2-----2---2---------||-----3--------3---0---0---------|---0---0-----0----0-------||---3--------------------------3-|--4-4---4-----4-----4-----||-1--------------3---------------|-5-------5------------5/7-|
|-----1---------3----|-0------------------------------------||----1-1-------3-3---|-0------------------------------------||---3---3-----5---3--|-0------------------------------------||--3---------5-----5-|-2------------------------------------||-1-------1-3--------|-0------------------------------------||--------------------|--------------------------------------|
"And when you're dreaming..."|-----2-------------6-----|-------6-----6--------4----------||-------2-------------6--6|---------7--------------6---6----||---------4---------------|-----------8---------------------||-----------4-----------6-|--------------------------6------||-------------------------|---------------------------------||-------------------------|---------------------------------|
| | ||-------------------------|---------------------------------||-----3------------5----5-|-----7----7--------5-----5-------||-2-----2--------6----6---|-7------7------6-------6---6-----||---------5---------------|---9-----------------------------|repeat|---5-------5/7-----------|-------------7---7---------------||-------------------------|---------------------------------|
|----7-----7------9-----9-|--------11----11---------9-----9-||------7------------9-----|----------11---------------9-----||--------8-----------10---|------------11--------------10---||-------------------------|---------------------------------||-------------------------|---------------------------------||-------------------------|---------------------------------|
| | ||----3------------5-------|-------------------------5-------||------3------------5-----|---------7---7---7---------5-----||--4-----4------6-----6-6-|-------7---7---7-------6-----6-6-||-------------7-----------|-----9---------------7-----------||-----------7-------------|-/10---------------7-------------||-------------------------|---------------------------------|
"You cant believe that know my spirit will be by your side"|------7------7---9-----9-|-----10----10--------12----------|---2---||--------7----------9-----|-------10--------------12--------|---2---||----------8---------10---|---------11--------------13------|---3---||-------------------------|---------------------------------|---4---||-------------------------|---------------------------------|-------||-------------------------|---------------------------------|-------|
| | | ||------3----------5-------|-------6--------------8----------|---2---||-------3-----------5-----|---6-----6----------8---8--------|---3---||---4-----4---6-------6-6-|-----7-----7-7------------9-9----|---2---||-5-------------7---------|------------------10-------------|---0---||-------------------------|-8--------------10---------------|-------||-------------------------|---------------------------------|-------|
SOLO:|------------------------|----------------------------------||------------------------|----------------------------------||-/9~~--9-8\6-6~~-3--4/6-|----------------------------------||------------------------|-/6~~----6h7p6p4-4----------------||------------------------|---------------------dive---------||------------------------|-------------------0\\\///--------|
|-------------------------|--------------------PM.........:-||-------------------------|---------------------------------||-/9~~-9/11\6-6~~--3-4-/6-|--------------------986----------||-------------------------|-/6~~--6h7p6p4-4-------986-------||-------------------------|-----------------4^-------976----||-------------------------|-----------------------------9---|
|----------------------------|---------PM....................:||----------------------------|--7^-7^-------------------------||-6^-^(6)p4^---6^-6^-^(6)p4^-|-x-----6^-----------------------||----------------------------|x----------------------6-686898-||----------------------------|--------------6-6767979-9-------||----------------------------|---------67979-9----------------|
|-------16-18-19-18h19--18-----|-20^-20^------22^-22^--19---||-19^----------------------19^-|------x-------x---x----22^--||------------------------------|----------------------------||------------------------------|----------------------------||------------------------------|---------dive---------------||------------------------------|---------0\\__--------------|
9.MY JEKYLL DOESN'T HIDE
1 & 3|------------------------------------------------------------------||------------------------------------------------------------------||------------------------------------------------------------------||-/14-12-8-7-------------------------------------------------------||-/12-10-6-5--3p0-----5--6--7-----5^--5~~-3------------------------||-----------------3-0-3--4--5--0------------5----------------------|
2|------------------------------------------------------------------||--------------------------------5-8-------------------------------||-----------------------------7^-----7^-^-5------------------------||-/14-12-8-7--------------------------------7----------------------||-/12-10-6-5--3p0-----5--6--7--------------------------------------||-----------------3-0-3--4--5--------------------------------------|
4|------------------------------------------------------------------||------------------------------------------------------------------||----------------------------------|\------------------------------||-/14--9-5-4----------------------/--\-----------------------------||-/12-10-6-5--3p0-----2--3--4----/----\----------------------------||-----------------3-0-3--4--5--3^----------------------------------|
Verse: goes w/ verse|---------------------------------------------||--------------------------||---------------------------------------------||--------------------------||---------------------------------------------||--------------------------||---------------------------------------------||--------------------------||-3-----7----6----5-----------3-----7---6---5-||-3---4/\/\/-6/\/\/-5/\/\/-||---5-3-5----4----3---0-0-3-0---5-3-5---4---3-||--------------------------|
|------------------------------------------------------------------||------------------------------------------------------------------||---------------------------2--------------------------------------||---------------------------2--------------------------------------||---------------------------0--------------------------------------||-3^------3^--(3)p0--3--3^----------5^--^---^----------------------|
Solo:|---------------------------------R--------------------------------||-------------10^~~~~------------------------------------10^-~~~---||-9^-9^-9^-9^----------9^-9^-9^--7^----------9^-9^-9^-9^-----------||------------------------------------9~~~~~------------------------||------------------------------------------------------------------||------------------------------------------------------------------|
|----12^---------0-9-|-12-9---------------------------------------------||--------------------|-----12-9----12-9---------------------------------||-9^--------^9-------|---------11-9----11-9----11-9--------------9------||--------------------|---------------------11-9----11-9----11-9--9------||--------------------|---------------------------------11-9----11-9-7---||--------------------|------------------------------------------------9-|
|-12-9--------------------------------------------||-----12-9----12-9------------------12^-12^--12---||---------11-9----11-9----11-9--------------------||---------------------11-9----11-9----------------||---------------------------------11--------------||-------------------------------------------------|
|-9h12p9----%--%--%-12p9-14p9-12p9--9---9--------|-------------------------||-------12------------------------12-12^-12p9--9-|--9--10--11--12--13--14--||--------------------------------------------11--|-11^-12^-13^-14^-15^-16^-||------------------------------------------------|-------------------------||------------------------------------------------|-------------------------||------------------------------------------------|-------------------------|
|----------------------------------20^^^^^^^-12-12^-1212^-17--------||-20^-^-20^-^-20^-^-20^-^20^-20-17---------------------------20^~~~-||-------------------------------------------------------------------||-------------------------------------------------------------------||-------------------------------------------------------------------||-------------------------------------------------------------------|
|-----------------------------------------------------------------------||----20---20---20---20---------20-------------19----19-19^--------------||-19^--19^--19^--19^--19^-^-17---19^(19)p17---19-17-19-19^---17---------||------------------------------------------19-------------------19~~~~~-||-----------------------------------------------------------------------||-----------------------------------------------------------------------|
|--------------------------------------------20-17h20p17--17---------||----17-20---17-20---17-20---17-20---17-20--------------20--20-17----||-19^-----19^-----19^-----19^-----19^-----19---------------------19^-||--------------------------------------------------------------------||--------------------------------------------------------------------||--------------------------------------------------------------------|
|--------------------------20p17--20p17--20p17--20p17--20p17--20^^------||-17-20-17-------------/17------17-----17-----17-----17-----17----------||---------19^-19-17~~~----------------------------------------------^20-||-----------------------------------------------------------------------||-----------------------------------------------------------------------||-----------------------------------------------------------------------|
10.OLD L.A. TONIGHT
Piano arr. for guitar:|-1---1---1-------|-0---0---0-------|-3---3-------------|-0-0---5---5-5------||-1---1---1---1-1-|-1---1---1-----1-|-0-0-0-----0-1---3-|-1-1------------3---||-2-2---2---2---0-|-0---0---0---0-0-|-0---0---2---0-0---|-2-2-----5---4--4---||-3---------------|-2-2---2---2---3-|-0-----0-----------|-2-2----------------||-3---------------|-3---------------|-2-----------------|-0---0--------------||-1---------------|-----------------|-3-----------------|--------------------|
Lead intro:|-------|-----------------------|-----------------------------||-------|-----------------------|/10---------8h10p8-----------||--^7-p-|5~~---x7^------7^-^7p5-|-----------------------------||-------|-----x-----------------|-----------------------------||-------|-----------------------|-----------------------------||-------|-----------------------|-----------------------------|
|---------------------------|-------------------------------||--x-10h12-8-5h8------------|---------------------8---------||-x-------------5~~---5h7-5-|--------5-7~--x7^-^----7^------||---------------------------|-5h7~~-------x-----------------||---------------------------|-------------------------------||---------------------------|-------------------------------|
|--------------------------|--------------------------------||--------------------------|--------------------------------||-7^-^p5~~~~~~~~-----5h7-5-|--------------------------------||--------------------------|-5h7--7^-^p5~~~~----------------||--------------------------|----------------------10-\------||--------------------------|--------------------------------|
|------------------------------------------||---------------------------------~~~~~----||-----------------5--9\7\5/7\5---5---------||-----------------5--x---------------------||-------3-5--/7------7\5\3/5\3---3---------|go to verses w/ piano|-3-5--------------------------------------|
Chorus: "But itll be alright..."|------------|----------------|-------------|---------------||----1-------|----0-----------|----1--------|---0----1-0-1--||-------0----|----------0-----|--------0----|-----0--------2||-3--------3-|-0--------------|-3---------3-|-0-------------||------------|----------------|-------------|---------------||------------|----------------|-------------|---------------|
"Are we doin alright...in old la tonight..."|-------------|--------------|---------||----1--------|----0---------|-1-------||--------0----|-------0------|-0---0---||-3---------3-|-0---------0--|-2-------||-------------|--------------|-3-------||-------------|--------------|---------|
"Those summer nights..'when i look in your eyes...'..." "Im falling to ..."|------------------|------------------|---------------------||------1-----0-----|---1--------------|-----1-----0---------||--------0-0---0-2-|-------0-------0--|-------0-0---0-------||----2-------------|-----------3------|---2-----------------||--3---------------|------------------|-3-------------------||------------------|------------------|---------------------|
| | | ||------------------|------------------|---------------------||------------------|------------------|---------------------||-\5---------------|------------------|-5-------------------||-\5-------5-----3-|------------------|-5-------5-------7---||-\3-------5-----3-|------------------|-3-------5-------7---||----------3-----1-|------------------|---------3-------5---|
|-----0-----------|-----------------|-----------------------||-1-0-----1-------|-----1-------0---|-1---------------------||-------2-------0-|---0-------0-----|-----0---------0-------||-------------3---|-2-------0-----3-|----------3------------||-----------------|-------3---------|-----------------------||-----------------|-----------------|-----------------------|
| | | ||-----------------|-----------------|-----------------------||-----------------|-----------------|-----------------------||-----------------|-5---------------|-----------------------||---------3---3---|-5-------5-5---3-|-----------------------||---------3---3---|-3-------5-5---3-|-----------------------||---------1---1---|---------3-3---1-|-----------------------|
Lead interlude:|--------------|----------------------|-----------------------||--------------|----------------------|---8-8h10-8~~----------||--------5h7-5-|-7^-7^~~~---7^-^(7)p5-|/9------------9-9\7-5/-||-5h7----------|----------------------|-----------------------||--------------|----------------------|-----------------------||--------------|----------------------|-----------------------|
|-------------------------------------|---------------------||-10h13-10~-8h10-8~-5h8-5~----trill---|---------------------||---------------------------797979797-|-7\5----5--7~~~--5---||-------------------------------------|---------------------||-------------------------------------|---------------------||-------------------------------------|---------------------|
|---------------------------|-------0------------0-----------0-||---------------------------|-0h1h3---3~~~-0h1h3---3~~-0h1h3---||/9--9^-^(9)p7~~~--7h9-5~~~-|----------------------------------||---------------------------|----------------------------------||---------------------------|----------------------------------||---------------------------|----------------------------------|
|-----------------------------------------------------------||-1---------------------------------------------------------||-----------------------------------------------------------||-----------------------------------------------------------||-------------------------x\\\\\\\\x\\\\\\\\----------------||-------------------------x\\\\\\\\x\\\\\\\\\\--------------|
SOLO:|-15^--15^--15^-------------|-8h10-8-h10----------------------------||-15^--15^--15^-^-13~~~--\8-|-----------8h10-8-5h8-5---5-8----------||---------------------------|------------------------7^---7^-^-5--/-||---------------------------|---------------------------------------||---------------------------|---------------------------------------||---------------------------|---------------------------------------|
|-----------------------------------------||-12----12-13~~--12---12-13~~--12--12-13/-||-14^------------14^-----------14^--------||-----------------------------------------||-----------------------------------------||-----------------------------------------|
|------------------------------------|-22^-^-^-^-20-22^-^-^-^-20-||-20^---~~~~~---16h22p16h22-16^-~~~^-|---------------------------||------------------------------------|---------------------------||------------------------------------|---------------------------||------------------------------------|---------------------------||------------------------------------|---------------------------|
|-22^-22^--22^--22^--22p20---20\------12-||-------------------------22--------13---||-----(1 1/2)---------------------12-----||-------bend-----------------------------||----------------------------------------||----------------------------------------|
|-15-13-12--------------12--------15-13-12--------------12---------||---------15-13-12-13-15--15-13-12--------15-13-12-13-15--15-13-15-||------------------------------------------------------------------||------------------------------------------------------------------||------------------------------------------------------------------||------------------------------------------------------------------|
|12-----------12----------12-----------12------151312-151312---------------------||--15-12-13-15--15-13-12----15-12-13-15--15-12--------------151312-151312--------||-----------------------14-----------------------------------------------141210--||--------------------------------------------------------------------------------||--------------------------------------------------------------------------------||--------------------------------------------------------------------------------|
--------------------|--------------------|141210--------------|------141210-141210-|--------------------|--------------------|
*****This is the riff behind the solo*****|-----------------------------------------------------------||-----------------------------------------------------------||-----------------------------------------------------------||-7-----7\3---3/10-----10------10-\-7---7-\-3----3----------||-7-----7\3---3/10-----10------10-\-7---7-\-3----3----------||-5-----5\1---1/8------8-------8--\-5---5-\-1----1----------|
|------------------------------------|----------------------||------------------------------------|----------------------||-5----------------------------------|---5----5----5--------||-5------5---------7-----7-\-3-----3-|---5----5----5--------||-3------5---------7-----7-\-3-----3-|---3----3----3--------||--------3---------5-----5-\-1-----1-|----------------------|
|-----------------------------||-----------------------------||-PM=======================---||-5--5--5--5--5--5--5--5--5---||-5--5--5--5--5--5--5--5--5---||-3--3--3--3--3--3--3--3--3---|
BRIDGE: "who could imagine such a thing..."|-5-----5--5--5-|-4--4--4--4-|-3--3--3--3--|-2--2--2--2-----|-1--1--1--1-----||-5-----5--5--5-|-5--5--5--5-|-5--5--5--5--|-3--3--2--2-----|-1--1--1--1-----||-5-------------|-5----------|-5-----------|-4--------------|-2--------------||-7-------------|-7----------|-5-----------|-4--------------|-3--------------||-12\0----------|------------|-------------|----------------|----------------||---------------|------------|-------------|----------------|----------------|
Tap to rate this tab
 
# A B C D E F G H I J K L M N O P Q R S T U V W X Y Z