Ozzy Osbourne - Lightning Strikes tab

                                LIGHTNING STRIKES
                          As recorded by Ozzy Osbourne
                     (From the 1986 Album THE ULTIMATE SIN)

Words and Music by Ozzy Osbourne, Jake E. Lee & Bob Daisley
Transcribed by www.mikesguitarsite.co.uk

          D5                  Csus2                 C5                   E5
      x 5 7 7 x x          x 3 x 0 3 x          x 3 5 5 x x          0 2 2 4 5 x

         Dsus2             E5(type 2)
      x x 0 2 3 0          0 2 2 x x x

Intro Q=138 4/4 Gtr I|------|-----------------|------------------|-----------------||------|-----------------|------------------|-----------------||------|-----------------|---------------2--|-----------------||------|-----------------|---------------2--|-----------------||------|-----2-----4-----|-5-----4-------0--|-----2-----5-----||-14\--|-2-2---2-2---2-2-|---2-2---2-0-2----|-2-2---2-2---2-2-|
~|------------------|-----------------|-----------------||---------------5--|-----------------|-----------------||---------------4--|-----------------|---------------2-||------------------|-----------------|---------------2-||-4-----2----------|-----2-----4-----|-5-----4-------0-||---2-2---2-0-0----|-2-2---2-2---2-2-|---2-2---2-0-2---|
|----------------------------------------||----------------------------------------||-[4]b6==(4)r(4)p2-4p2---2---------------||----------------------4---4-2-----------||------------------------------4-0-4p0---||--------------------------------------0-|
Verses||------------------|------------------|-----------------|||o-----------------|------------------|-----------------|||------------------|---------------2--|-----------------|||------------------|---------------2--|-----------------|||o-----2-----4-----|-5-----4-------0--|-----2-----5-----|||--2-2---2-2---2-2-|---2-2---2-0-2----|-2-2---2-2---2-2-|
~|------------------|-----------------|------------------|--------------------||---------------5--|-----------------|------------------|--------------------||---------------4--|-----------------|---------------2--|--------------------||------------------|-----------------|---------------2--|--------------------||-4-----2----------|-----2-----4-----|-5-----4-------0--|-----2-----5--------||---2-2---2-0-0----|-2-2---2-2---2-2-|---2-2---2-0-2----|-2-2---2-2---2-[0]--|
PM--------------------------||-----------------------------------|----------------|------------------||-----------------------------------|-0--------------|------------------||---------------------2-----x-4p2---|-0--------------|------------------||---------2-----2-3-4---3h4-------4-|-0--------------|------------------||-2h3h==4---3h4---------------------|----2-----4-----|-5-----4-----2----||-----------------------------------|------3-3---3-3-|---3-3---3-3---0--|
|
|-----------------------------------|----------------|------------------||-----------------------------------|----------------|------------------||---------------------------------4-|----------------|------------------||---------------------4-2---0h2h4---|----------------|------------------||-----0h4---2---0h2h4---------------|----------------|------------------||-0h2-------------------------------|----------------|------------------|
PM----------------||----------------|-------------------|-----------------||-2--------------|-------------------|-----------------||-2--------------|---------------2---|-----------------||-2--------------|---------------2-4-|-----------------||-0--4-----5-----|-7-----7s9-0-0---4-|-----2-----4-----||------5-5---5-5-|---5-5-------------|-2-2---2-2---2-2-|
|------------------|-----------------|----------------|||------------------|-----------------|----------------|||---------------2--|-----------------|--------------2-|||---------------2--|-----------------|-----------4--2-|||-5-----4-------0--|-----2-----5-----|-4p0-12\---4--0-|||---2-2---2-0-2----|-2-2---2-2---2-2-|-----------2----||
Pre-Chorus $|---------0-|-(0)-----------|------------||---------0-|-(0)-----------|---------10-||-----------|-----------2---|----------9-||-2---------|-(2)----2--2---|----------7-||-2---------|-(2)----2--0---|-4----------||-0---------|-(0)----0----0-|-2----------|
|--------------------|---------0-|-(0)-----------||-(10)-(10)\---------|---------0-|-(0)-----------||--(9)--(9)\------2--|-----------|-----------2---||--(7)---------4--2--|-2---------|-(2)----2--2---||--(4)---------4--0--|-2---------|-(2)----2--0---||--(2)---------2-----|-0---------|-(0)----0----0-|
|------------|--------------------|---------------||---------10-|-(10)-(10)\---------|-0----------0--||----------9-|--(9)--(9)\------2--|-0---2-(2)--0--||-4--------7-|--(7)---------4--2--|-0---0-(0)--0--||-4----------|--(4)---------4--0--|-x---x-(x)--x--||-2----------|--(2)---------2-----|-3---3-(3)--3--|
~~~ ~|------------------|------------------|----------------|||-(0)--------------|-2-------------2--|-(2)------------|||-(0)--------4--7--|-2---2h4-(4)-4-2--|-(2)------4--7--|||-(0)--------5--9--|-2-----2-(2)-2-2--|-(2)-2----4--7--|||-(x)-[5]----5--9--|-0-----0-(0)-0-0--|-(0)------2--5--|||-(3)------3-3--7--|------------------|--------0----5--||
Chorus ~~~|-----------------|----------------|----0-----5-----||-----------------|----------------|------3-----3---||---9-9s7-9--[9]--|---9-9s7-9--9s8-|--------2-----2-||---9-9s7-9-------|---9-9s7-9--9s8-|-0--------------||---7-7s5-7-------|---7-7s5-7--7s6-|----------------||-0---------------|-0--------------|----------------|
Gtrs IGtr I ~~~|-----0---5--0----0-0-|-----------------|----------------||-------3-------------|-----------------|----------------||-(2)-----------2-----|---9-9s7-9--[9]--|---9-9s7-9--9s8-||---------------------|---9-9s7-9--[5]--|---9-9s7-9--9s8-||---------------------|---7-7s5-7-------|---7-7s5-7--7s6-||---------------------|-0---------------|-0--------------|
|
|-----0---5-(5)-0---0-|-----------------|----------------||-------3---------3---|-----------------|----------------||--2------------------|-----------------|----------------||---------------------|-----------------|----------------||---------------------|-----------------|----------------||---------------------|-----------------|----------------|
1. To Coda|----0---5-0-----|--------------------|-----------------||------3-----3---|--------------------|-----------------||--------------2-|-(2)----------------|-----------------||-0--------------|-----9-9-9-11-9-9\--|-----------------||----------------|-----9-9-9--9-9-9\--|-----2-----4-----||----------------|-----7-7-7--7-7-7\--|-2-2---2-2---2-2-|
~~~~~|------------------|-----------------|----------------------------|||------------------|-----------------|-5p2---2-------------------o|||---------------2--|-----------------|-----4---5-4-2---2-[4]b6----|||---------------2--|-----------------|---------------4------------|||-5-----4-------0--|-----2-----5-----|---------------------------o|||---2-2---2-0-2----|-2-2---2-2---2-2-|----------------------------||
Bridge 2. Gtr I|-------0-0---------------------|-------------------|-----------------------||-2-2---2-2-2-2--x-------2---2--|-2-2-x---------2---|-4-4-x-----5-5-x-x-----||-2-2-4-2-2-4-4--x-------2---2--|-2-2-x-4-(4)-2-2-2-|-4-4-x-4-4-4-4-x-x-4-4-||-2-2-2-2-2-2-2--x-------2---2--|-2-2-x-2-(2)-2-2-2-|-4-4-x-4-4-4-4-x-x-4-4-||-0-0-0-0-0-0-0----------0---0--|-0-0---0-(0)-0-----|-2-2---2-2-2-2-----2-2-||-------------------------------|-------------------|-----------------------|
|
| Gtr II|-------------------------------|-------------------|-----------------------||-------------------------------|-------------------|-----------------------||-------------------------------|-------------------|-----------------------||-------------------------------|-------------------|-----------------------||-----------------------<5>-----|-------------------|-----------------------||---------------<5>-<5>-----<5>-|-------------------|-----------------------|
|-----------------|---------0-0-----------|---------------------||-----------------|---2-2---2-2-2-2-x-2-2-|--2--2-x---------2---||-4-4-4-4-4-4-4-4-|---2-2-4-2-2-4-4-x-2-2-|--2--2-x-4-(4)-2-2-2-||-4-4-4-4-4-4-4-4-|---2-2-2-2-2-2-2-x-2-2-|--2--2-x-2-(2)-2-2-2-||-2-2-2-2-2-2-2-2-|---0-0-0-0-0-0-0---0-0-|--0--0---0-(0)-0-----||-----------------|-----------------------|---------------------|
|
|-----------------|-----------------------|---------------------||-5p4-------------|-----------------------|---------------------||-----4---6-4-----|-----------------------|---------------------||-------4-----4-6-|-6s7-------------------|-(7)-----------------||-----------------|-----------------------|---------------------||-----------------|-----------------------|---------------------|
|---------------------|----------------------|||---------------------|----------------------|||-4-4-4-4-4-----4-4-4-|-4-4-4-4-4-----4-x\---|||-4-4-4-4-4-----4-4-4-|-4-4-4-4-4-----4-x\---|||-2-2-2-2-2-----2-2-2-|-2-2-2-2-2-----2-x\---|||---------------------|----------------------||
|
| PM---------------------------------------||---------------------|----------------------|||-------4-2h4p2-------|-----4-7-5h7p5--------|||-----4---------2-----|---4-----------6------|||-4-4-------------2---|-4---------------7--9-|||-------------------0-|----------------------|||---------------------|----------------------||
Guitar Solo D5 B Gtr I | || | | | | | | | | | | | | / // / / / / / / / / / / / o
Gtr II|--10b12====10-10-10-10-10-|-10r(10)-10-10-10----10-10-------10-10-10---10-10-||--13b15====13-13-13-------|-13r(13)-13-13-13s12-12-12-12s10-10-10-10p8--8--8-||--------------------------|--------------------------------------------------||--------------------------|--------------------------------------------------||--------------------------|--------------------------------------------------||--------------------------|--------------------------------------------------|
Csus2 | | | | | | | | | | | | ||| / / / / / / / / / / / / ///
~~~~~~~|------------------------------|--------------------||-7b8==(7)r(7)-----------------|--------------------||--------------7-5h7p5-4-5-4---|-----5-[7]-(7)---x/-||----------------------------5-|-5s7-------------x/-||------------------------------|--------------------||------------------------------|--------------------|
D5 | | | / / /
|-16b18====(16)r(16)-14h15p14----14-------10-||-----------------------------15----15-10----||--------------------------------------------||--------------------------------------------||--------------------------------------------||--------------------------------------------|
B | | | | | | | | | / / / / / / / / o
|--------------------------------------------------||-10----10-----------------------------------------||----13----12-11h12p11----11-----------------------||----------------------12----12----12--------------||-------------------------------12----12-10-12-10--||--------------------------------------------------|
C5 | | | | | | | | / / / / / / / /
|----------------------------------------------||----------------------------------------------||----------------------------------------------||-----------------------------12------12-10----||---7------10-9----10s12-10-9----12-9-------12-||-8---10-8------10-----------------------------|
C5 | | | | | | | | / / / / / / / /
|----------------------------------------10-------||----------------------10-------13-10-12----13-10-||-11-11-------12-11-------12-11-------------------||-------12-10-------12----------------------------||-------------------------------------------------||-------------------------------------------------|
E5 | | / /
~~~~~|-15b17===(15)-(15)r(15)b19==(15)-(15)r--12h14-12----||-------------------------------------------------15-||----------------------------------------------------||----------------------------------------------------||----------------------------------------------------||----------------------------------------------------|
| | | | | | | / / / / / / /
~~~~~~~|----------12-------------12-------------12-------------||-(15)b17-----15p12----------15p12----------15p12-------||-------------------14b16----------14b16----------14b16-||-------------------------------------------------------||-------------------------------------------------------||-------------------------------------------------------|
Dsus2 | | | | | | | / / / / / / /
|-12----------------12----------------12----------------12----------------||----15p12-15p12-------15p12-15p12-------15p12-15p12-------15p12-15p12----||----------------14----------------14----------------14----------------14-||-------------------------------------------------------------------------||-------------------------------------------------------------------------||-------------------------------------------------------------------------|
| | | | | | | | / / / / / / / /
~~~~|-17p12----12-------12-----------------------------------------------||-------15----15p12----12----12-------12-----------------------------||-------------------------14----14p13----[12]-----12-----------------||---------------------------------------------14-----14-14b16==(14)--||--------------------------------------------------------------------||--------------------------------------------------------------------|
E5 | | | / / /
|----------x-19b20==(19)-(19)-19r(19)-18-17-15-14--12h=14-||--------0------------------------------------------------||---------------------------------------------------------||-(14)r\--------------------------------------------------||---------------------------------------------------------||---------------------------------------------------------|
| /
~~|-14pb17r(14)-12-15-15p12-(12)s10-||---------------------------------||---------------------------------||---------------------------------||---------------------------------||---------------------------------|
E5(type 2) | | | | | | | | / / / / / / / /
|-10-10-10-12-12-12-14-14-14--12-12-14-14-14-15-15-15-14-14-15-15-15-||--------------------------------------------------------------------||--------------------------------------------------------------------||--------------------------------------------------------------------||--------------------------------------------------------------------||--------------------------------------------------------------------|
| | | | | | | / / / / / / x
|-17-17-17-15-15-17-17-17-19-19-17-17-17-19-19-21-21b22==(21)--|||--------------------------------------------------------------|||--------------------------------------------------------------|||--------------------------------------------------------------|||--------------------------------------------------------------|||--------------------------------------------------------------||
Gtr II ~~~~~~~~~~~~~~~~~~~~~~~~~|-(21)r(21)---(21)-----------|-21----------------||----------------------------|-------------------||----------------------------|-------------------||----------------------------|-------------------||----------------------------|-------------------||----------------------------|-------------------|
|
| Gtr I|----------------------------|-------------------||----------------------------|-------------------||----------------------------|----------------2--||----------------------------|----------------2--||---------------2------4-----|--5-----4-------0--||---2-------2------2-2---2-2-|----2-2---2-0-2----|
|-21\---------------|----------------||-------------------|----------------||-------------------|----------------||-------------------|----------------||-------------------|----------------||-------------------|----------------|
|
|-------------------|----------------||-------------------|----------------||-------------------|-----------x\---||-------------------|-----------x\---||-------2-----5-----|-2tr4-----------||--2--2---2-2---2-2-|----------------|
D.S. al Coda Gtr I|-----------------|------------------|-----------------|-------------------|||-----------------|------------------|-----------------|-------------------|||-----------------|---------------2--|-----------------|---------------2---|||-----------------|---------------2--|-----------------|------------4--2---|||-----2-----4-----|-5-----4-------0--|-----2-----5-----|-4p2------0-4--0---|||-2-2---2-2---2-2-|---2-2---2-0-2----|-2-2---2-2---2-2-|-----17\----2------||
Chorus & ~~~|-----------------|----------------|----0-----5-----|-----0---5-(5)-0---0--||-----------------|----------------|------3-----3---|-------3---------3----||---9-9s7-9--[9]--|---9-9s7-9--9s8-|--------2-----2-|-(2)------------------||---9-9s7-9-------|---9-9s7-9--9s8-|-0--------------|----------------------||---7-7s5-7-------|---7-7s5-7--7s6-|----------------|----------------------||-0---------------|-0--------------|----------------|----------------------|
Gtrs IGtr I ~~~|-----------------|----------------|----0---5-0-----|---------------------|||-----------------|----------------|------3-----3---|---------------------|||---9-9s7-9--[9]--|---9-9s7-9--9s8-|--------------2-|-(2)-----------------|||---9-9s7-9--[5]--|---9-9s7-9--9s8-|-0--------------|-----9-9-9-11-9-9\---|||---7-7s5-7-------|---7-7s5-7--7s6-|----------------|-----9-9-9--9-9-9\---|||-0---------------|-0--------------|----------------|-----7-7-7--7-7-7\---||
Outro|-----------------|------------------|-----------------|-----------------||-----------------|------------------|-----------------|---------------5-||-----------------|---------------2--|-----------------|---------------4-||-----------------|---------------2--|-----------------|---------------2-||-----2-----4-----|-5-----4-------0--|-----2-----5-----|-4-----2-------2-||-2-2---2-2---2-2-|---2-2---2-0-2----|-2-2---2-2---2-2-|---2-2---2-0-0-0-|
Gtr II|-----------------|------------------||-----------------|------------------||-----------------|------------------||-----------------|------------------||-----------------|------------------||-----------------|------------------|
|
| Gtr I|-----------------|------------------||-----------------|------------------||-----------------|---------------2--||-----------------|---------------2--||-----2-----4-----|-5-----4-------0--||-2-2---2-2---2-2-|---2-2---2-0-2----|
|-------------------|-------------------------------|||-------------------|-------------------------------|||-------------------|-4b6r(4)b6======(4)-------(4)--|||-----------(4)-----|-------------------------------|||-------------------|-------------------------------|||-------------------|-------------------------------||
|
|-------------------|-------------------------------|||-------------------|------------------------5------|||-------------------|------------------------4------|||-------------------|------------------------2------|||-----2------5------|-4------------2---------2------|||-2-2---2-2-----2-2-|------2-----2----2--0-0-0------||
Outro - Guitar Solo|---------------------------------|-5-5-5-5-----------------------||-5-5-5-5-5-5-5-5-5-5-5-5-5-5-5-5-|-5-5-5-5-5-5-5--------(5)--5h7-||-4-4-4-4-4-4-4-4-4-4-4-4-4-4-4-4-|-4-4-4-4-4-4r4b6======(4)r-----||---------------------------------|-------------------------------||---------------------------------|-------------------------------||---------------------------------|-------------------------------|
|
|---------------------------------|-------------------------------||---------------------------------|-------------------------------||---------------------------------|-----------------------2-------||---------------------------------|-----------------------2-------||---------2-----------4-----------|-5---------4-----------0-------||-2---2-------2---2-------2---2---|-----2---2---2----0-2----------|
/ | \2.5______/ \2________ ~~~~~~~~~~~~~~~|-------------------------|--------------------------------------||-5h7-5-------------------|--------------------------------------||-------7-0-<7>---(<7>)---|----------------------x/--------------||-------------------------|-<7>------(<7>)-0-(0)-x/--------------||-------------------------|--------------------------------------||-------------------------|-----------------------------0---0----|
|
|-------------------------|--------------------------------------||-------------------------|---------------------------5----------||-------------------------|---------------------------4----------||-------------------------|---------------------------2----------||-------2-------5---------|--4-------------2----------2----------||-2---2---2--2------2---2-|--------2---2------2--0--0-0----------|
/ \2.5|---------------------------|---------------------||---------------------------|---------------------||---------------------------|-----------x\--------||---------------------------|-------x-x-x\--------||---------------------------|-------x-x-x\--------||-(0)-(0)---(0)---(0)-------|-(0)-----------------|
|
|---------------------------|---------------------||---------------------------|---------------------||---------------------------|------------------2--||---------------------------|------------------2--||------------2--------4-----|--5------4--------0--||--2---2--------2--2----2-2-|-----2-2---2--0-2----|
~~~~~~~~~~~~~|-----------------------------------||-14b17---14b17====(14)---(14)r(14)-||-----------------------------------||-----------------------------------||-----------------------------------||-----------------------------------|
|
|-----------------------------------||-----------------------------------||-----------------------------------||-----------------------------------||----------2------------5-----------||--2----2--------2---2------2----2--|
\2.5_______/|---------------------------------||-14----14------------------------||----14----14---9tr11-----(9)-(9)-||---------------------------------||---------------------------------||---------------------------------|
|
|---------------------------------||--------------------------5------||--------------------------4------||--------------------------2------||--4----------2------------2------||-----2--2------2-----0-0--0------|
\3.5 \2_____/|-----------------------------|----------------------||-----------------------------|----------------------||-(9tr11)---------------------|----0-----0b2=========||-----------------------------|----------------------||---------------x-----(x)-(x)-|----------------------||---------------x-----(x)-(x)-|-/3-------------------|
|
|-----------------------------|----------------------||-----------------------------|----------------------||-----------------------------|-------------------2--||-----------------------------|-------------------2--||-----------2-------4---------|--5-----4----------0--||--2------2---2-2------2---2--|----2-2---2----0-2----|
\2/ \2/ \2/|--------------------------|----------------------------------||--------------------------|----------------------------------||-(0)-----------(0)b6==(0)-|-([0])-------(0)----(0)------(0)--||--------------------------|----------------------------------||--------------------------|----------------------------------||--------------------------|----------------------------------|
|
|--------------------------|----------------------------------||--------------------------|---------------------------5------||--------------------------|---------------------------4------||--------------------------|---------------------------2------||-------2-----5------------|---4-------2---------------2------||--2--2---2-2----2------2--|-------2-2----2---0------0-0------|
\2/ \2/ \3|-----------------------------------||-----------------------------------||-(0)-(0)----(0)---(0)--(0)r--------||-----------------------------------||-----------------------------------||-----------------------------------|
|
|-----------------------------------||-----------------------------------||-----------------------------------||-----------------------------------||-------------2--------------4------||--2-------2-----2-------2-----2-2--|
\2_____/|-----------------------17b20==|=(17)-------(17)r(17)---17pb18r(17)-||-----------------x-x-x--------|------------------------------------||-x-0-----(0)-(0)-x-x-x--------|------------------------------------||-x-0-----(0)-(0)-x-x-x--------|------------------------------------||-x-0-----(0)-(0)--------------|------------------------------------||------------------------------|------------------------------------|
|
|------------------------------|------------------------------------||------------------------------|------------------------------------||---------------------2--------|------------------------------------||---------------------2--------|------------------------------------||-5--------4----------0--------|--------2----------5----------------||---2---2------2--0-2----------|---2--2---2---2-------2--2----------|
~~~~~~~~~~~~~~|-14------------------------------||----17-17b19====(17)r-17------x/-||---------------------------17-x/-||---------------------------------||---------------------------------||---------------------------------|
|
|---------------------------------||----------------------------5----||----------------------------4----||----------------------------2----||--4-----------2-------------2----||-----2--2---------2----0-0--0----|
|---------------------14----------------------14-||-x-17-17-------14-19----------17-------14-19----||-x-------14h16----------16-16----14h16----------||------------------------------------------------||------------------------------------------------||------------------------------------------------|
|
|------------------------------------------------||------------------------------------------------||------------------------------------------------||------------------------------------------------||-------------2-----------------4----------------||-2-----2-----------2-----2-----------2-----2----|
|----------------------14----------------------14--||----17-17-------14-19-------17-17-------14-19-----||-14-------14h16----------14-------14h16-----------||--------------------------------------------------||--------------------------------------------------||--------------------------------------------------|
|
|--------------------------------------------------||--------------------------------------------------||--------------------------------------2-----------||--------------------------------------2-----------||--5-----------------4-----------------0-----------||--------2-----2-----------2-----0--2--------------|
|------------------------------------------------------||------------------------------------------------------||-------------------------------------------------x\---||-14-14-14-13----13-13-13-12----12-11----11-10----x\---||-------------18-------------17-------16-------15-x\---||------------------------------------------------------|
|
|------------------------------------------------------||------------------------------------------------------||------------------------------------------------------||------------------------------------------------------||-----------------2-----------------------5------------||--2-----2--------------2--------2----------------2--2-|
\0.5___/|--------------------------|--------------------*||--------------------------|--------------------*||-x\-----------------------|--------------------*||-x\---x\------------------|--------------------*||-x\---x\------------------|--------------------*||------x\---0-----(0)------|-(0)----------------*|
|
|--------------------------|--------------------*||-----------------------5--|--------------------*||-----------------------4--|--------------------*||-----------------------2--|--------------------*||-4-------2-------------2--|-------2-----4------*||----2-2----2------0--0-0--|--2--2---2-2---2-2--*|
*************************************************************************************** * Generated using Power Tab Editor by Brad Larsen - http://powertab.guitarnetwork.org * ***************************************************************************************
Tap to rate this tab
 
# A B C D E F G H I J K L M N O P Q R S T U V W X Y Z