Paco De Lucia – Mi Inspiration tab

Artist: Paco de Lucía
Song: Mi Inspiración

-----------------------------------------------------------------------------

E||--10--9--7--5--3--2--0----|--9--7--5--3--2--0-------|B||--7-----------------------|--------------------3----|G||--7------------------3----|-------------------------|D||--0-----------------------|-------------------------|A||--0------------------0----|-------------------------|D||--------------------------|--------------------0----|
--7--5--3--2--0----------|---------------|--10--8--6-----------------|-----------------3--2----|--3------------|------------10--8--6--5----|--0----------------------|--2------------|----------------------4----|-------------------------|--3------------|--8------------------------|--------------------0----|--0------------|----------------------0----|-------------------------|--0------------|---------------------------|
--8--6--5--3--1--0-------|--6--5--3----------------|---------------|--------------------3----|--3--------6--5--3-------|---------------|-------------------------|--3-----------------6----|--7------------|-------------------------|--------------------5----|--4------------|-------------------------|--------------------0----|--0------------|--------------------0----|--3----------------------|--0------------|
-----2--------2--------2-----|--------------------------|-----------------------------|-----3--------3--------3--|-----------------0-----------|--------------------------|--4-----3--4--------4-----3--|--0--------0-----2--0-----|--0--------------------------|--------4-----------------|--0--------------------------|--0-----------------------|
-----------------------------|-----0---------0--0----0--|-----------3--2--0-----------|------------0-----2-------|--------2-----------2--0-----|---------0--------0-------|--0--4--------------------4--|-------2----------2-------|-----------------------------|--0---------------0-------|-----------------------------|--------------------------|
-----------------------------|-----------------------------|-----2--------2--------2-----|--------------------------3--|-----------------------------|-----------------2--0--4-----|-----------------0-----------|--------2--0--4--------------|--4-----3--4--------4-----2--|--0--4-----------------------|-----------------------------|-----------------------------|
-----------------------------|--------------------2----2--|--2h-0--3--2h-0--------------|-----3-----3--------3-------|-----------------2--0h-------|--------2--------2----------|-----------------------4--2--|--0-----------4-------------|-----------------------------|----------------------------|-----------------------------|----------------------------|
-----2--------2--------2-----|----------------------------|-----------------------------|-----3--------3----------3--|-----------------------------|----------------------------|--4-----3--4-----5--4h----3--|-----------------2----------|--0--------------------------|--5-----4--5--------5-------|--0--------------------------|--0-------------------------|
--------------0--------------|--------------------------|-----------1-----3--1h-0-----|-----------------------0--|--------2-----------------2--|--4---------------4----0--|--0h-4-----------------------|-----5---------5-------0--|-----------------------------|-------5-2--5----------2--|-----------------------------|--3--------------------5--|
-----------------------------|-------------------------0--|-----------------------------|----------------------------|-----------------------------|-----2-----2--------2----9--|-----0--------0--------------|--------2--------2----------|-----------1-----3--1--0--1--|--0-----------4-------------|--0-----2--------------------|----------------------------|
----------------10------------------|------------------------------|------------11------13--11h-10--11--|-----10-------10-----10-------|---------10-------------------------|--------9---------9--------9--|------12----------------------------|----------11------------------|--10--------------------------------|--0---------------------------|------------------------------------|------------------------------|
-------------------------|----------------------------|-----------3--2--0-------|-----------2----------------|--------4-----------2----|--------2-----4h-2----------|--2--5-------------------|--0h-4--------------5h---4--|-------------------------|----------------------------|-------------------------|----------------------------|
----------------------------|--------------------2----2--|-----------0----------------|-----3-----3--------3-------|--------------2--0----------|--------2--------2----------|--------2-----------4----2h-|--0-----------4-------------|--0--4----------------------|----------------------------|----------------------------|----------------------------|
---------------------------|-----------------------------|--------------3h2----------|--------------2--------------|-----------4------4--2h-0--|-----------2-----4--2h-0-----|--2h-4h-5------------------|--0h-2h-4-----------------4--|---------------------------|-----------------------------|---------------------------|-----------------------------|
-----------------------------|--------------------2----2--|-----------------------------|-----3-----3--------3-------|-----------0--4h-2h-0--------|--------2--------2----------|--------2--------------4h-2h-|--0-----------4-------------|--0h-4-----------------------|----------------------------|-----------------------------|----------------------------|
--------------0-----2----|--3----4----5----|--7-5---------------------|-----3-------------------|-----------------|------8-7-5---------------|-------------------------|--0--------------|------------7-6-----------|--0-----0--2-----2--4----|-------6----7----|----------------9-7-5-----|-------------------------|-----------------|----------------------9-7-|-------------------------|------------5----|--------------------------|
--------------5----|--3----2----0----|----------------------------|-------------------|------------2----|----------------------------|-----------4-------|--0---------0----|----------------------0-----|--------5-----7----|-------4----2----|----0-----------------------|--5--9-------------|-----------------|-------4--2--4--2--0-----4--|--0----------------|-----------------|----------------------------|
-----------------------------|---------------|------------------------0-0-0-0--|-----------------------------|---------------|--------------3-3-3-3------------|-----0--4--2h-0--------------|---------------|----2-2-2-2----------------------|--2--------------4--2h-0-----|--0------------|---------------------------------|--------------------------4--|--5------------|------------2---------4----------|-----------------------------|--0------------|--0------------------------------|
----2-2-2-2---2-2-2-2---2-2-2-2--|--------------3-3-3-3---2-2-2-2--|---------------------------------|---------------------------------|----------------------2----------|----2-2-2-2----------------------|------------0--------------------|---------------------------------|---------------------------------|------------2---------1----------|--0------------------------------|--0------------------------------|
----0-0-0-0---0-0-0-0---0-0-0-0--|--------------0-0-2-2---3-3-5-5--|---------------------------------|----2-2-3-3----------------------|----------------------0----------|----------------------0----------|------------2--------------------|------------2--------------------|--0------------------------------|--1------------------------------|---------------------------------|---------------------------------|
----5-5-5-5---5-5-5-5---5-5-5-5--|----5-5---4-4---4-4---3-3---3-3-3-3--|---------------------------------|-------------------------------------|----------------------2----------|-------------------------------------|------------2--------------------|--4-----3-----3-----3-----2----------|---------------------------------|-------------------------------------|--2------------------------------|-------------------------------------|
----2-2-2-2---2-2-2-2---2-2-2-2--|------------------------0-0-0-0--|---------------------------------|--------------3-3-3-3------------|----------------------2----------|----2-2-2-2----------------------|------------0--------------------|---------------------------------|---------------------------------|------------2---------4----------|--0------------------------------|--0------------------------------|
----2-2-2-2---2-2-2-2---2-2-2-2--|----2-2-3-3---3-3---5-5---5-5---9-9--|---------------------------------|-------------------------------------|----------------------2----------|-------------------------------------|------------0--------------------|-------------------------------------|---------------------------------|-------------------------------------|--0------------------------------|--0---------0-----2-----2-----3------|
----9-9-9-9---9-9-9-9---7-7-7-7--|----7-7-7-7---9-9-9-9---7-7-9-9--|---------------------------------|---------------------------------|---------------------------------|---------------------------------|----------------------5----------|----------------------5----------|------------5--------------------|------------5--------------------|--5------------------------------|--5------------------------------|
----7-7-7-7---9-7-7-7---5-5-5-5--|----2-2-2-2---7-7-7-7---5-7-7-5--|---------------------------------|----------------------3----------|---------------------------------|---------------------------------|----------------------5----------|------------0--------------------|------------5--------------------|---------------------------------|--5------------------------------|--0------------------------------|
----3-3-3-3---3-3-3-3---3-3-3-3--|--------------0-0-2-2---3-3-5-5--|---------------------------------|----2-2-3-3----------------------|----------------------0----------|----------------------0----------|------------2--------------------|------------2--------------------|--0------------------------------|--0------------------------------|---------------------------------|---------------------------------|
----5-5-5-5---5-5-5-5---5-5-5-5--|----2-2-3-3---3-3---5-5---5-5---9-9--|---------------------------------|-------------------------------------|----------------------2----------|-------------------------------------|------------4--------------------|-------------------------------------|---------------------------------|-------------------------------------|--0------------------------------|--0---------0-----2-----2-----3------|
----9-9-9-9---9-9-9-9---7-7-7-7--|----7-7-7-7---9-9-9-9---7-7-9-9--|---------------------------------|---------------------------------|---------------------------------|---------------------------------|----------------------5----------|----------------------5----------|------------5--------------------|------------5--------------------|--5------------------------------|--5------------------------------|
----7-7-7-7---9-7-7-7---5-5-5-5--|--------------7-7-7-7---5-7-7-5--|---------------------------------|----7-7-7-7----------------------|---------------------------------|----------------------7----------|----------------------5----------|---------------------------------|------------5--------------------|------------5--------------------|--5------------------------------|--0------------------------------|
----3-3-3-3---3-3-2-2---0-----|--------------------------|-----2--------2--2--|--------------------------3-2-|--0-----------------------|-----3--------3--3--|----------------------0-------|----2-0-------------------|-----2-----2--2--2--|------------2-----------------|--------4-2-0-------------|-----0h-4-----4--4--|--0---------------------------|--------------4-2-0-------|--------------------|------------------------------|--------------------5-3-2-|--0-----------------|
-----------------0--2----0--|-----------------0--2----0--|--------------3-------------|--3-----------3-------------|-----------5----------------|-----------5----------------|--------4-----------4-------|--------4-----------4-------|-----0----------------------|----------------------------|--0-------------------------|-----0----------------------|
--------------0-------------|-------------------------0--|--3--------------3--1----0--|-----------------0--1-------|-----------5----------------|--2-----------2-------------|--------4-----------0-------|-----------4----------------|----------------------------|--------3-----------3-------|-----0----------------------|-----0----------------------|
-----------------0--2----0--|-----------------0--2----0--|--------------3-------------|--3-----------3-------------|-----------5----------------|-----------5----------------|--------4-----------4-------|--------4-----------4-------|-----0----------------------|----------------------------|--0-------------------------|-----0----------------------|
----------------------------|-----------------------2--2--|--3--------------5--3-------|--0-----------------0--4--4--|--------------5----------5--|-----0-----------0-----2--2--|-----------4--------4-------|--------0-----0--------4--4--|----------------------------|-----------2-----------------|-----0--5-------------------|--5--------------------------|
--------------2--3--5h-3--2--|--0-----------------0-------|-----------3-----------------|-----0-----------0----------|--------2--------------------|--------0-----0-------------|-----4-----------------------|-------------------------2--|--2--------------------------|-----------2----------------|-----------------------------|--2-------------------------|
--------------0--2--3h-2--0--|----------------------------|-----------2-----------------|--3-----------------3----3--|--------0--------------------|-----2-----------2----------|-----2-----------------------|--------4-----4-------------|--0--------------------------|-----------0----------------|-----------------------------|--0-------------------------|
-----------------0--2----0--|-----------------0--2h---0--|--------------3-------------|--3-----------3-------------|-----------5----------------|-----------5----------------|--------4-----------4-------|--------4-----------4-------|-----0----------------------|----------------------------|--0-------------------------|-----0----------------------|
----------------------------|----------------------------|--3--------------5--3h---1--|--0-----------------0----0--|--------------5-------------|-----0-----------0----------|-----------4--------0-------|--------0-----0-------------|--------0-------------------|-----------2----------------|-----0----------------------|--3-------------------------|
-------------------------0--|-------------------------0--|----------------------------|----------------------------|----------------------------|----------------------------|--------5--4--2--4--5-------|--------4--2--0--2--4-------|-----4----------------------|-----0----------------------|--2-------------------------|--0-------------------------|
-----------1-0--------0-|--------------2--2-0-|--2-2-2-2-2-2-2-2-2--2-0-|---------3----------2---|--3-----------3--3-3-|--3-3-3-3-3-3-3-3-3--3-3-|-------1----------0-----|-----------2--2--2-2-|--2-2-2-2-2-2-2-2-2--2-2-|------------------------|--------4-----4--4-4-|--0-0-0-0-0-0-0-0-0--0-0-|--1----------0----------|-----0---------------|-------------------------|------------------------|--0------------------|-------------------------|
--0--2-0-0--2-0---2--|--------0-2-3-5-3-2-0---2-|--0-----------0--0--|--3--3-3-3--3-3---3--|--0-2-3---------------3---|-----2-----2-----2--|--2--2-2-2--2-2---2--|--------------------------|--------0--------0--|--0--0-0-0--0-0---0--|--------------------------|-----------------2--|---------------------|--------------------------|--0--------------0--|---------------------|--------------------------|--------------------|
----------------0-2-3-5-3-|--2-0---------------------|--3-2-0---0-2-3-----------|------3-2-0-------0-------|--------2-----------------|------------2-0-2---2-0---|--------------------------|------------------------4-|--------------------------|--------------------------|--------------------------|--------------------------|
--------------------------|---------------|-----------------0--1----0--|--------------------------|---------------|--------------3-------------|--------------------------|---------------|-----------2----------------|--2-0-2-4-2-0-------------|---------------|--------3-----------3-------|--------------4-2-0-------|---------------|-----0----------------------|--------------------5-3-2-|--0------------|--0-------------------------|
--------------------|-------------------1--|--0------------|--3-----------3-----|--------3----2--3-----|---------------|-----------2--------|-----3-------2--------|---------------|--------0-----------|--3----------2--------|---------------|-----------------1--|-------------1--------|--0------------|-----3--------------|----------------------|---------------|
--3------------3--1--0-----|---------------------------|-----3------3-----------3--|-------2-5--3--2-----------|---------3-----------------|-----0------------3h-2h-0--|-------0-------------------|---------------------------|--1------------------------|--0------------------------|---------------------------|---------------------------|
---------------------------|-----------------0--|-----------------0--1----0--|---------------------------|--------------3-----|--------------3-------------|---------------------------|-----------2--------|-----------2----------------|--3--2--0------------------|--------3-----------|--------3-----------3-------|-----------3--2-0----------|-----0--------------|-----0----------------------|------------------5--3--0--|--0-----------------|--0-------------------------|
-----------------0--|--2--3--5----------------|------------3--5--6----|--3-----------3-----|--1-----4----------------|---------3-------------|-----------2--------|--2-----5----3--2--0-----|-------3---------------|--------0-----------|--0-------------------4--|--5--7-----------------|--------------------|-------------------------|-----------------------|-----3--------------|-------------------------|-----------------------|
--5--3--------3----------|---------------------|--6--5--3--1--0--------------|--3----6-5--6---6--5--3--|--2----3--2----------|--3--------------3--2--1-----|--3----------------------|--2----------3--2----|--3-----------------------3--|--3----------------------|--2------------------|--3--------------------------|-------------------------|--0------------------|--0--------------------------|-------------------------|---------------------|-----------------------------|
-----0------------0----|--0----1----4----|--5----6--5--3--5-------|-------2----------2----|------------3----|--2----3-------------5--|---------2--------2----|--3----2----3----|--2----3----------------|---------------2-------|-----------------|-------3----------------|--0---------4----------|--4----3----1----|--0---------------------|-----------------------|-----------------|------------------------|
-----------------------------|-----5------0--5--5-------|-----------------------------|---------2--------5----5--|-----------------5--7--6-----|-------2----------6-------|--------5--7--8-----------8--|------------------7-------|--7--8-----------------------|--0-----------------------|-----------------------------|--------------------------|
--3---------------6--5--3--|--------------3----1--|--0-----------1----0--|-----3---------3-----------|-----------3----------|-----------2----------|-------3----3--------------|--------2-------------|--------0-------------|--5------5-----------------|-----3----------------|-----2----------------|---------------------------|----------------------|--0-------------------|---------------------------|--0-------------------|----------------------|
-----------------0--|--3---------------6--5--3--|--2-----------3h-2--|--3-----------3-----|-----3---------3-----------|-----------3--------|-----------2--------|-------3----3--------------|--------2-----------|--------3-----------|--5------5-----------------|-----4--------------|-----0--------------|---------------------------|--------------------|--0-----------------|---------------------------|--0-----------------|
--0-----------2h-0--|-------------------2--|-----------------------|-----------2--------|--3-----------3-------|------------------3----|--------0-----------|-----------2----------|-----------------------|-----2--------------|--------4-------------|-------4-------4-------|--1-----------------|-----0----------------|-----0------0----------|--------------------|--0-------------------|--0------0-------------|
-----------------------|-------------------------|---------------|------------------2----|-------------------------|--0------------|-----------------------|-----------5----------0--|--4------------|-------4-------4-------|--------4----------0-----|---------------|-----0------0----------|-----0-------------------|---------------|--0------0-------------|--0-------------5--------|---------------|
--------------------0-0-2-|--5-3-2-0-----------------|--0-----------0-2-3-------|----------3-2-0-------0---|----2-0---0-2-------------|----------------2-0-2---2-|--------4-----------------|--------------------------|--------------------------|--------------------------|--------------------------|--------------------------|
--------------------------|-----2--------2--2-0-|--2-2-2-2-2-2-2-2-2--2-0-|--------------------------|-----3--------3------|--3-3-3-3-3-3-3-3-3--3-3-|--0-----------------------|-----2-----2--2------|--2-2-2-2-2-2-2-2-2--2-2-|----4-2-4-2-0-------------|-----0--4-----4------|--0-0-0-0-0-0-0-0-0--0-0-|--------------4-2-0-------|---------------------|-------------------------|--------------------5-3-2-|--0------------------|-------------------------|
--0--2-0-0--2-0-0--2-0-|--2-2-2-2-2--3-2-0-------|--------------0--0-0-|--3--3-3-3--3-3-3--3-3-|--3-3-3-3-3--------4-3-2-|--1-----------1--1-0-|--2--2-2-2--2-2-2--2-2-|--2-2-2-2-2--------------|--------------2--2-2-|--0--0-0-0--0-0-0--0-0-|--0-0-0-0-0--------------|-----------4---------|-----------------------|-------------------------|--------0------------|-----------------------|-------------------------|-----0---------------|
--0-0-0-0-0-0-0-0-0--0--|--0--0--0--0--0-2-3-2-|--0-----------------------|--1-1-1-1-1-1-1-1-1--1--|--1--1--1--1--1-------|----3-1-0-----------------|--2-2-2-2-2-2-2-2-2--2--|--2--2--2--2--2-------|----------2-0-------------|--4-4-4-4-4-4-4-4-4--4--|--4--4--4--4--4-------|--------------4-2-0-------|--0-0-0-0-0-0-0-0-0--0--|--0--0--0--0--0-------|--------------------3-2-0-|------------------------|----------------------|--------------------------|
-----------0--0--|--3-3-3-3-3-3-3-3-3--3--|--2-2-2-2-2-2-2-2-2--2--|-----------0--0--|--3-3-3-3-3-3-3-3-3--3--|--3-3-3-3-3-3-3-3-3--3--|-----------0--0--|--4-4-4-4-4-4-4-4-4--4--|--2-2-2-2-0-0-0-0-2--2--|-----------------|--5-5-5-5-7-7-7-7-5--5--|--4-4-4-4-4-4-4-4-4--4--|-----------------|------------------------|------------------------|--5--------------|------------------------|------------------------|
--0-0-0-0-2-2-2-2-0--2-2-2-|--2--2--2--2--2--0--|--3--------0--3--0--|--2-2-2-2-2-2-2-2-2--3-3-3-|--3--3--3--3--3--3--|--------------------|--0-0-0-0-0-0-0-0-0--2-2-2-|--2--2--2--2--2--2--|-----0--3-----------|--2-2-2-2-2-2-2-2-2--0-0-0-|--0--0--0--0--0--0--|--------------------|--0-0-0-0-0-0-0-0-0--------|--------------------|--4-----------------|---------------------------|--------------------|--------------------|
--2-----------2-----|-------------0----|--2------------||--------0--3--------|--------2----2----|--3------------||--------------------|-----0-------0----|--2------------||--0--4--------------|--2----------2----|--0------------||-----------------1--|-------------0----|--0------------||--------------------|------------------|---------------||
Please rate this tab:
x1.0