Paco De Lucia - Rio Anchp tab

                              Rio Ancho (Rumba)                                 


                                                                   Paco de Lucia
Paco



                                                                        
E||---------0--------------|----------------------|--------------------|B||--0------0-----------0--|----------------------|--------------------|G||--0------0-----------0--|-------------------4--|--------------------|D||--5------5--4--5--4--5--|----------4--5--7-----|--------------------|A||--5------5-----------5--|----------------------|--7--------6--------|E||--7------------------7--|----------------------|--0-----------------|
---------0----0--0--0--|---------0-----------0--|----------------------|---------0----0--0--0--|--0------0-----------0--|----------------------|---------9----9--9--9--|--0------0-----------0--|-------------------4--|---------9----9--9--9--|--5------5--4--5--4--5--|----------4--5--7-----|--7------7----7--7--7--|--5------5-----------5--|----------------------|--0------0-------------|--7---------------------|----------------------|
-----------------------|--------0----0--0--0--|--0------0--------------|-----------------------|--------0----0--0--0--|--1------1--0--1h-0-----|-----------------------|--------9----9--9--9--|--0------0-----------2--|-----------------------|--------9----9--9--9--|--2------2--------------|--7--------6--7--6--7--|--------7----7--7--7--|--0---------------------|--0--------------------|----------------------|------------------------|
--------0----0--0--0--|--0------0--------------|-------0------------|--------1----1--1--1--|--1------1--0--1p-0-----|-------1------------|--------0----0--0--0--|--0------0--------------|-------0------------|--------2----2--2--2--|--2------2--------------|-------2------------|----------------------|--0---------------------|-------0------------|----------------------|---------------------0--|--5-----------------|
G7/B ---------0-----------0--|----------------------|---------0--------------|--0------0-----------0--|----------------------|--0------0--------------|--0------0-----------0--|-------------------4--|--0------0--------------|--5------5-----------5--|----------4--5--7-----|--3------3--2--3--2--3--|--5------5--4--5--4--5--|----------------------|--5------5--------------|--7---------------------|----------------------|--7---------------------|
----------------------|-----------------------|------------------------|----------------------|-----------------------|------------------------|----------------2--4--|-----------------------|-------------2--4--5----|----------3--5--------|--3--------2--3--2--3--|----2--3--5-------------|----------------------|-----------------------|------------------------|----------------------|-----------------------|------------------------|
---------5--------------|------5------------|-------------------------------|--5------5--------------|------5------------|-------------------------------|--5------5--------------|------5------------|--11p-9------------------------|--5------5--------------|------5------------|---------12--11--10p-9------9--|--7---------6--7--6--7--|------7------------|------------------------13-----|--8---------------------|------6------------|-------------------------------|
Em/B------7------------|--------7--12p-7--12--7--|--7--7----7----7--7--7--|------7------------|-------------------------|-----8----8----8--8--8--|------8------------|-------------------------|-----9----9----9--9--9--|------7------------|-------------------------|-----9----9----9--9--9--|------9------------|-------------------------|------------------------|------7------------|-------------------------|------------------------|
----------7--12p-7--12--5--|----5----5----5--5--5--|--5------5--10p-8--10-----|-------8-------------------|----5----5----5--5--5--|--5--------------------7--|----9----------------------|----5----5----5--5--5--|--5-----------------------|---------------------------|----5----5----5--5--5--|--5-----------------------|---------------------------|----7----7-------------|--7-----------------------|---------------------------|----5----5-------------|--5-----------------------|
------------10p-8--10-----|----5--10p-8--10--8--10-----|----7----7-------------7--|-------------------------7--|--------------------------|----------------------------|--------------------------|----------------------------|--------------------------|----------------------------|--------------------------|----------------------------|
--------------------------|----------------------|------------------------|----7----7--10p8p7--------|-------------------7--|--7----5----7--5--8--7--|--------------------9--7--|----7----7--7---------|------------------------|--------------------------|----9----9--9---------|------------------------|--------------------------|----------------------|------------------------|--------------------------|----------------------|------------------------|
-------------------7------|--7-------------------------|-------------7--8-----10--|-----10p-9--10p-8--7--8p-7--|----9--8--9---------------|----------------------------|--------------------------|----------------------------|--------------------------|----------------------------|--------------------------|----------------------------|
---------------7--8--10--7--|--------7--12--7------|-----7--8--10---------------|----------------------|--9-------------------------|----------------------|----------------------------|----------------------|----------------------------|----------------------|----------------------------|----------------------|
----7--12--7--12--7--12--5--|----5-------5-------5--|----5----5--10p-8--10-----|----------------------------|------------5-------5--|----5------------------7--|----------------------------|---------5-------5-----|--------------------------|----------------------------|-----------------------|--------------------------|----------------------------|-----------------------|--------------------------|----------------------------|-----------------------|--------------------------|
---------5--10p-8--10-----|----5--10--8--10p-8--10-----|----7------------------7--|-------------------------7--|--------------------------|----------------------------|--------------------------|----------------------------|--------------------------|----------------------------|--------------------------|----------------------------|
--------------------------|----------------------|------------------------|----7----7--10p8p7--------|-------------------7--|--7----5----7p-5--8--7--|--------------------9--7--|----7----7--7---------|------------------------|--------------------------|----9----9--9---------|------------------------|--------------------------|----------------------|------------------------|--------------------------|----------------------|------------------------|
-------------------7------|--7-------------------------|-------------7--8-----10--|-----10p-9--10p-8--7--8p-7--|----9--8--9---------------|----------------------------|--------------------------|----------------------------|--------------------------|----------------------------|--------------------------|----------------------------|
------------------------7--|----------7--------7-----|-------7----------7-----|-----7--------7--8h-10-----|-------8--------8--------|----8----------8--------|--9-----8h-9---------------|----9--------8--------7--|----------6----------5--|---------------------------|-------------------------|------------------------|---------------------------|-------------------------|------------------------|---------------------------|-------------------------|------------------------|
Am7 ---------7----5----5--|--5------5----5----5--|-----------5--------5-----|----5-----------------|--5------5----5----5--|--------7--------7--------|----------------------|--5------5----5----5--|-----8--------7--------6--|----------------------|--5------5----7----7--|--9-----------------------|----------------------|--7------7------------|--------------------------|----------------------|--5-------------------|--------------------------|
-------5----------5-----|---------5--5----3--3--|----3----3----7----7--|----7----------7--------|----3----3--3----3--3--|----3----3------------|----------5----------4--|---------4--4----4--4--|----4----4------------|------------------------|-----------------------|----------------------|------------------------|-----------------------|----------------------|------------------------|-----------------------|----------------------|
--7-----------------------7---------|--------------------------------|-----10p-8p-7--8h-10--10-----10p-8p-|--7--8h-10--10h-12--12p-10--10--|------------------------------------|--------------------------------|------------------------------------|--------------------------------|------------------------------------|--------------------------------|------------------------------------|--------------------------------|
----------------------------|-----------------------------|--10p---9--7----7----7h9h10p|--9------7h9h10p9--7h-9--10/-|-----------8----8-----------|-----------------------------|----------------------------|-----------------------------|----------------------------|-----------------------------|----------------------------|-----------------------------|
--7-------------------------|------------------------|--10------8----5----5--|-------12p---10p-8p-7--10p8-|----7-------------7--8--|---------------5----5--|----------------------------|-------9----8--9--------|---------------5----5--|----------------------------|------------------------|-----------------------|----------------------------|------------------------|-----------------------|----------------------------|------------------------|-----------------------|
-----------8------------12--|--10----8-----------------|-------10------------8------|---------------12--10--9--|----9---------9--11---------|--------------------------|----------------------------|--------------------------|----------------------------|--------------------------|----------------------------|--------------------------|
----------8--12--10--8------10p8-|---------------------------|--10--12----------------12-------|----12---------------------|---------------------------------|---------------------------|---------------------------------|-----------------7--9--10--|---------------------------------|----------9--10------------|---------------------------------|---------------------------|
--------------7------------|-------------------------|--------7--8-----10--8--7--|-------------------------|--7--9---------------------|----9----8h-9--11--8h-9--|---------------------------|-------------------------|---------------------------|-------------------------|---------------------------|-------------------------|
B7 ---------------------------7--|------7------------|--------7--12p-7--12--7--|----------------8--10--11-----|------7------------|-------------------------|--11--8h-9--11----------------|------8------------|-------------------------|------------------------------|------7------------|-------------------------|------------------------------|------9------------|-------------------------|------------------------------|------7------------|-------------------------|
----7----7----7--7--7--|----------7--12p-7--12--5--|----5----------5--5--|----8----8----8--8--8--|-------8-------------------|----5----------5--5--|----9----9----9--9--9--|----9----------------------|----5----------5--5--|----9----9----9--9--9--|---------------------------|---------------------|-----------------------|---------------------------|---------------------|-----------------------|---------------------------|---------------------|
----5----5--10p-8--10-----|---------5--10p-8--10-----|----5------------------7--|----7------------------7--|----5---------------------|--------------------------|--------------------------|--------------------------|--------------------------|--------------------------|--------------------------|--------------------------|
----5--10p-8--10p-8--10-----|--------------------------|---------------------|-------------------------7--|----7----7--10p8p7--------|------------------7--|----------------------------|--------------------9--7--|----7----7-----------|----------------------------|--------------------------|----9----9-----------|----------------------------|--------------------------|---------------------|----------------------------|--------------------------|---------------------|
-------------------------|---------------------------|--7----------------------|---------------------7--8--|-------9----9p-7------7--|---------------7--9--------|------------------10-----|----10--9--10--------------|-------------------------|---------------------------|-------------------------|---------------------------|
Em --------------------------|--15----15----14p-12--14--15--|--10--10----------12--12--|--12----12----12------12--12--|--9---9-----------11--11--|--12----12----12------12--12--|--7---7-----------11--11--|------------------------------|--------------------------|------------------------------|--9---9-----------11--11--|--0---------------------------|
----15----15--15p-14p-12--14--|-----14--------14--------14--|----12----12--12--------------|-----13--------13--------13--|----12----12--12--------------|-----14----14--14----14--14--|------------------------------|-----------------------------|------------------------------|--0--------------------------|------------------------------|-----------------------------|
----------14----14------|--14------12p-10--12--14----|----------13----13------|--10------------------10----|----14----14----14------|--11------------------11----|------------------------|----------------------------|------------------------|----------------------------|------------------------|--10------------------10----|
----12p-10--12--14p-12p-10--12--|----12----12--12----12--12--|----------------10--------------|----12----12--12----12--12--|----------------11--------------|----11----11--11----11--11--|--------------------------------|----------------------------|--------------------------------|----------------------------|--------------------------------|----------------------------|
----12----12------12----|--12------12p-10--12----12--|----12----12------12----|--8---------------------8---|----11----11------11----|--9---------------------9---|------------------------|----------------------------|------------------------|----------------------------|------------------------|------------------------8---|
----12----10p-8--10--12----|--14------12p-11--12----14--|----8-----8----------------|--0-------------------------|----9-----9----------------|--14------------------------|---------------------------|--12------------------------|---------------------------|--14------------------------|---------------------------|----------------------------|
Em ----14------------14-------|--15----15----14p-12--14--15--|----0-------------0--------|--12----12----12------12--12--|----14------------14-------|--12----12----12------12--12--|----12--------12-----------|------------------------------|----14----14---------------|------------------------------|------------------------0--|--0---------------------------|
----15----12--14--15--15\-19--|--19------17----17----17--|----12------------------------|--------------------------|----12------------------------|--------------------------|------------------------------|--------------------------|------------------------------|--------------------------|------------------------------|--------------------------|
--------------17----17------|--17--17----------17--17--|----------13----------------|--15--15----------15--15--|------14--------------------|--14--14----------14--14--|--16------------------------|--16--16----------16--16--|----------------------------|--------------------------|----------------------------|--------------------------|
----17----17----17\-----|------------------------|----------------------|----15----15----15\-----|---------3--3--3--3--3--|----3----3----3-------|----14----14----14\-----|---------4--4--4--4--4--|----4----4----4-------|----16----16----16\-----|------------------------|----------------------|------------------------|------------5--5--5--5--|----5----5----5-------|------------------------|--3---------3--3--3--3--|----3----3----3----5--|
--------7--5------------|----------------------|-------------------------|--------5--5------7--7--|----5-----------------|-------------------------|--------5--5------5--5--|----5----7--7----5----|--8----------------------|-----5------------------|---------5--5----5----|--9----10----9----10--9--|--7---------------------|----------------------|--9----------------------|------------------------|----------------------|-------------------------|
----7----7----7-------|----------------------------|---------------------|----7----7----7-------|--------0-------------------|---------------------|----8----8----8-------|----------------------------|---------------------|----7----7----7----9--|--9--9-----9p-7-------------|------------------9--|----9----9----9-------|-----------------10--9--10--|----9----7-----------|----7----7----7-------|----------------------------|---------------------|
--------------------------|----5----5----5--5--5--|----------------------------|--------------------------|----5----5----5--5--5--|----------------------------|--------------------------|----5----5----5--5--5--|----------------------------|--9----10----9--10--9--7--|----5----5----5--5--5--|-----------7--9--10--7------|--------------------------|----7----7----7--7--7--|----9--10---------------10--|--------------------------|----5----5----5--5--5--|----------------------------|
------------------------|--------------------------|--------0----0--0--0--|------------------------|--------------------------|--------0----0--0--0--|------------------------|--------------------------|--------x----x--x--x--|------------------7--9--|--------------------------|--------5----5--5--5--|----9--9------10--------|--10----9----7------------|--------8----8--8--8--|------------------------|----------------10--8--7--|--------7----7--7--7--|
-----0-------------------|-------------------|-----------------------|-------------3--2--3--3--|----1--------------|------------5----4--5--|----------4--------------|-------------------|-------6---------------|--5----------------------|-------------------|--7--------------------|-------------------------|-------------------|-----------------------|-------------------------|-------------------|-----------------------|
-------------------|------------------------------|------------------------|----4--------------|------------------------------|------------------------|-------------------|-------8--11--11--10--11--11--|----9----9--9p-7--7--7\-|-------------------|----9-------------------------|------------------------|-------------------|------------------------------|------------------------|-------------------|------------------------------|------------------------|
-------------7----5--|----5----5----5----5--|--------------------------0-------|-------------5----5--|----5----5----5----5--|------------0-1p0---0-1-3---3-1-0-|--5----------5----5--|----5----5----5----5--|--2p0---0-2-------2---------------|-------------5----5--|----5----5----5----5--|------4---------------------------|-------------7----7--|----7----7----7----7--|----------------------------------|-------------5----5--|----5----5----5----5--|----------------------------------|
------0-2-3-5-3-2-0-----------------|---------------0--0--0--|--1-3---------------3-1-0-----------|---------------0--0--0--|--------------------------2-0-2-4-4-|--4p---2--0----0--0--0--|------------------------------------|---------------0--0--0--|------------------------------------|---------------2--2--2--|------------------------------------|---------------3--3--3--|
---------------------------------|---------------0----0--|---------------------------------|---------------1----1--|---2p0---0-2-4p2p0---0-2-4-4-4-4-|--4p---2--2----0----0--|-------4-----------4-------------|---------------2----2--|---------------------------------|---------------0----0--|---------------------------------|-----------------------|
---------------------------------|------------------------|---------------------------------|------------------------|---2p0---0-2-4p2p0---0-2-4-4-4-4-|--2----1-------1--2p-1--|-------4-----------4-------------|----------4-------------|---------------------------------|------------------------|---------------------------------|------------------------|
--------------------------|--------------------------|----------------------0--|-----------------------0--|--1p-0--------------------|-------------------0-----|-----1--2p-1-----1--2-----|--------4p-2--2p-0-----0--|----------------0--------|--4-----------4-----------|--------------------4-----|----1--------2-----------|--------------------------|--------------------------|----------2--------------|--------------------------|--------------------------|-------0-----------------|
--2--3--5/-7----7----7--|----5----5----------|-------------------7--|----------------5----5--|----5----5----------|----5-------5------7--|----------------5----5--|----5----5----------|----5-------5------5--|------------------------|--------------------|----4-------4------7--|------------------------|--------------------|----5----0---------5--|------------------------|--------------------|----------------------|
----7----7--7----7--7/-|--10------5--------------|----------------------|----7----7--7----7-----|-------------8--7--5-----|----------------------|----5----5--5----5-----|----------------------7--|----7----7--7----7----|----7----7--7----7-----|-------------------------|----9----9--9----9----|----5----5--5----5-----|-------------------------|----------------------|-----------------------|-------------------------|----------------------|
----------------------|-------------------------|----------------------|--7--7----------8--8--|----8----10-----10-------|--12----12------------|--7--7----------9--9--|----9----9------9--------|--11----11------------|----------------------|---------8------8--------|--9-----9-------------|----------------------|-------------9--------9--|--9-----9-------------|----------------------|-------------------------|--11----11------------|
--------7--12p-7--12p-7--|--7--7----7----7--7--7--|----------7--12p-5--12--5--|-------------------------|-----8----8----8--8--8--|-------8-------------------|-------------------------|-----9----9----9--9--9--|----9----------------------|-------------------------|-----9----9----9--9--9--|---------------------------|-------------------------|------------------------|---------------------------|-------------------------|------------------------|---------------------------|
----5----5------5--5--|----5----5--10p-8--10-----|---------5--10p-8--10-----|----5----5------5--5--|----5------------------8--|----8------------------8--|----5----5------5--5--|----5---------------------|--------------------------|----5----5------5--5--|----5---------------------|--------------------------|----------------------|--------------------------|--------------------------|----------------------|--------------------------|--------------------------|
----5--10p-8--10p-8--10-----|--------------------------|--------------------5--|-------------------------8--|----10p-8p-8p-8p-7-----7--|-----------------------|----------------------------|--------------------9-----|----9--7--7--7---------|----------------------------|--------------------------|----------9--9---------|----------------------------|--------------------------|-----------------------|----------------------------|--------------------------|-----------------------|
------------------------|---------5----5----5--|----------------5-------|--8p---7p-5--7p-5-------|----------------------|--8p---7--8p-7-----8----|-------------------7----|----5-----------------|------------------------|------------------------|----------------------|------------------------|------------------------|----------------------|------------------------|------------------------|----------------------|------------------------|
---------5--------5--8--|--7-----------8--8--7--|---------------------|----7-------7--8--------|-----------------------|---------------------|------------------------|-------9---------------|----9--9----------9--|------------------------|-----------------------|---------------------|------------------------|-----------------------|---------------------|------------------------|-----------------------|---------------------|
-----7--12--10--8--7--5--7--|----5----5--5--------|--5--10--8--5--5----------|--8-------------------------|---------5--5--------|--------------------8--7--|----------------------------|---------5--5--------|--------------------------|----------------------------|---------------------|--------------------------|----------------------------|---------------------|--------------------------|----------------------------|---------------------|--------------------------|
----------------------|---------------------------|-------------------------|----7--7--------------|--7h-10--7----------7h-10--|--7--------7----10--7----|----------9--7--------|------------9--7-----------|-----9--7----------------|----------------------|---------------------------|-------------------------|----------------------|---------------------------|-------------------------|----------------------|---------------------------|-------------------------|
---------------------------|---------------------------|--7h-10p-8p-7p-5----7--10--|--8--7-----------7--8--10/-|---------------------------|--------9--8--9------------|---------------------------|---------------------------|---------------------------|---------------------------|---------------------------|---------------------------|
------------------------------|------------------------|--12--12----12--12----12--12--|----12----12----12------|------11----11--11----11--11--|----11----11----11------|------9-----9---9-----9---9---|----9-----9-----9-------|------9-----9---9-----9---9---|----9-----9-----9-------|------11----11--11----11--11--|----11----11----11------|
---------0--------------|--------0--------------|---------0--------------|--0------0-----------0--|--------0--------------|---------0--------------|--0------0-----------0--|--------0-----------4--|---------0--------------|--5------5--4--5--4--5--|--------5--4--5--7-----|------------------------|--5------5-----------5--|--------5--------------|--7---------6--7--6--7--|--7------7-----------7--|--------7--------------|--0---------------------|
--------0----0--0--0--|--------------------|-----------------------|--------0----0--0--0--|--0--------0--------|----0------------------|--------9----9--9--9--|--0--------0--------|----0---------------4--|--------9----9--9--9--|--5--------5--------|----5------4--5--7-----|--------7----7--7--7--|--5--------5--------|----5------------------|----------------------|--7--------7--------|----7------------------|
-----------------------|------------------------|-----------------------|-----------------------|------------------------|-----------------------|--0--------------------|------------------------|-----------------------|--0--------------------|------------------7--9--|--3--------2--3--2--3--|--8--------7--8--7--8--|--8--------8--10--------|--3--------------------|--7--------------------|------------------------|--1--------------------|
-----------------------|-----------------------|-------------------|-----------------------|-----------------------|-------------------|-----------------2--4--|--5--------------------|------5------------|--3--------3--5--------|--5--------------------|------5------------|-----------------------|--7--------6--7--6--7--|------7------------|-----------------------|--8--------------------|------6------------|
-------------------------------|------7------------|-------------------------|-------------------------------|------7------------|-------------------------|--11p-9------------------------|------8------------|-------------------------|---------12--11--10p-9------9--|------7------------|-------------------------|------------------------13-----|------9------------|----7p-6--5--------------|-------------------------------|------7------------|-------------8p-7--6--5--|
----5--5------------|-----------------------|--------------------------|-------5------------|-----------------------|--------------------------|-------5------------|-----------------------|--------------------------|-------5------------|-----------------------|--------------------------|-------7------------|-----------------3--5--|--7p5-3-------------3--5--|-------5------------|--------3--5--7--------|-----------3--5--7--------|
-------------------------|---------------------------|-------------------------|--------------0--------0---|-------------------------|--------------8--------8---|-------------------------|-------10-----10-------10--|--7p5-3----7--6----------|-----------9---------------|-------------------8--8--|--7-----------7-----7------|
----------7--12--7--12--12--|----7----7----7-------|-----7----7--12p-7--12----|----0-----------------------|----8----8----8-------|--8-----------------------|----8-----------------------|----9----9----9----9--|--------------------------|----10----------------------|----9----9----9-------|--------------------------|----------------------------|----------------------|--------------------------|----------------------------|----------------------|--------------------------|
--5--5----5----5----5--|----------10--------10----|----------------------------|--7--7----7----7----7--|----10----------10--------|--8---8-----8-----8-----8---|--5--5----5----5----5--|--------------------------|--9---9-----9-----9-----9---|--7--7----7----7----7--|--------------------------|--8---8-----8-----8-----8---|--5--5----5----5----5--|--------------------------|--10--10----10----10----10--|-----------------------|--------------------------|--8---8-----8-----8-----8---|
----------10-------10----|--2-------2---------2--|---------7--12p-7--12--7--|----8-----------8--------|--4-------4---------4--|--------------------------|----9--------------------|--2-------2---------2--|--------------------------|----8--------------------|--4----4---------------|----4---------------------|----10-------------------|--2------------2-------|--------------------------|----8--------------------|-----------------------|--------------------------|
----7----7----7--7----|----------7--12p-7--12--5--|----5-------5------5--|---------8----8--8----|-------8-------------------|----7-------7------7--|---------9----9--9----|----9----------------------|----5-------5------5--|----------------------|---------------------------|---------7------------|----------------------|---------------------------|----------------------|----------------------|---------------------------|----------------------|
--------10--8--7-----------|------------------------|----------10----7---------|----10--------------10--8--|----8\----7/-8\---7/-8--|----7h-8-----------10--8--|---------------------------|----9\----8/-9\---8/-9--|--------------------------|---------------------------|----8\----7/-8\---7/-8--|--------------------------|---------------------------|----10------------------|--------------------------|---------------------------|----8-------------------|--------------------------|
-----------------------|----------------------|------------7-----------|--7-------7---------7--|----7----7--7--7------|--10----10--------------|--8-------8---------8--|----8----8--8--8------|-------------------9----|--7-------7---------7--|----7----7--7--7------|------------------------|-------9---------------|----------------------|------------------------|--7------------7-------|----------------------|------------------------|
---------------7--8/-12----|----10-----------------|----------5h-7--5--------|-----7--8--10--------------|----------7-------7----|----5h-7-----------7--5--|--9------------------------|---------------9-------|-------------------------|---------------------------|-----------------------|-------------------------|---------------------------|-----------------------|-------------------------|---------------------------|-----------------------|-------------------------|
---------------------|-----------------------|--------------------------|---------------------|--------------5--7--8--|--10p-8--7--10----8----7--|--7----------5--7----|--------5h-7-----------|--------------------------|---------------------|-----------------------|--------------------------|---------------------|-----------------------|--------------------------|---------------------|-----------------------|--------------------------|
----------------------|--7p---5--7------------|-------------7--8--10--12--|----7----7--7----7----|---------------5----7--|----8----10----------------|----8----8--8----8----|-----------------------|---------------------------|----7----7--7----7----|-----------------------|---------------------------|----------------------|-----------------------|---------------------------|----------------------|-----------------------|---------------------------|
----10h-12p10--------------|----------5h-7--5--------|----------------------|--------------7----5--7----|----5h-7-----------7--5--|----------------------|---------------------------|-------------------------|--7h-------7p-5--7----|---------------------------|-------------------------|----------------------|---------------------------|-------------------------|----------------------|---------------------------|-------------------------|----------------------|
---------------------|----------------------|----------------------|-----------7------5--|----------------------|----------------------|--------5------------|----8----8----8----8--|--8-------8----8------|---------------------|----7----7----7----7--|--7-------7----7------|---------------------|----9----9----9----9--|-----9----9----9------|---------------------|----7----7----7----7--|----------------------|
--7--7----7----7--7--7--|----7----7----7--------|--7----7------7--7--7--|--8--8----8----8--8--8--|----8----8----8-----3--|--7----7------7--7--7--|--9--9----9----9--9--9--|----9----9----9--------|--7----7------7-----7--|------------------------|-----------------0-----|-----------------------|------------------------|-----------------------|-----------------------|--0---------------0-----|-----------------------|-----------------------|
----7----7----7--------|--7----7------------7--|----7----7--7----7----|----7----7----7-----1--|--5----5-------1----5--|----5----5--5----5----|----7----7----7--------|--5----5------------5--|----5----5--5----5----|-----------------------|-----------------------|----------------------|-----------------3-----|--3---------3----------|----------------------|-----------------------|-----------------------|----------------------|
----7----7--7----7--7--|----7----7----7------|--7-------7-------7----|----7----7--7----7--7--|----7----7----7------|--8-------8-------8----|----8----8--8----8--8--|----8----8----8------|--9-------9-------9----|-----------------------|---------------------|-----------------------|-----------------------|---------------------|-----------------------|----7----7--7----7--7--|----7----7----7------|--0----0-------0-------|
-----7-------7----7--7--|-----5-------5----5--5--|----5----5----5----5--|-----8-------8----8--8--|-----7-------7----7--7--|----7----7----7----7--|-----9-------9----9--9--|-----5-------5----5--5--|----5----5----5----5--|------------------------|--0-------0-------------|----------------------|------------------------|------------------------|----------------------|--0-------0-------------|------------------------|----------------------|
--3--3----------3--3--3--|----3----3--3----3----|------------------------|--5--5----------5--5--5--|----5----5--5----5----|--7----8--7----8--7--8--|--3--3----3-----3--3--3--|----3----3--3----3----|--8----9--8----9--8--9--|-------------------------|----------------------|--7----8--7----8--7--8--|--3----------3-----------|----------------------|------------------------|-------------------------|----------------------|--7----8--7----8--7--8--|
----------------------|-----2----0------------|---------0--2----3----|----7----8--8----7----|-----0----0----3----1--|----0----0--0----0----|----8----9--9----8----|-----0----0----0----0--|----0----0--0----0----|----7----8--8----7----|---------------2----2--|----2-----------------|----------------------|-----------------------|----------------------|----7----8--8----7----|--0--------------------|----------------------|
--5--5----5----5----5--|----5----5--5----5----|----6----6--6----6--6--|--7--7----7----7----7--|----7----7--7----7----|----5----5--5----5--5--|--5--5----5----5----5--|----5----5--5----5----|----3----3--3----3--3--|--0--------------------|----------------------|-----------------------|-----------------------|----------------------|----3------------------|-----------------------|----------------------|-----------------------|
----6----6--6----6----|--7-------7-------7----|-----7-------7----7----||----5----5--5----5----|--7-------7-------7----|-----7-------7----7----||----3----3--3----3----|--8-------8-------8----|-----8-------8----8----||----------------------|-----------------------|-----------------------||----------------------|-----------------------|-----------------------||----------------------|--7----7-------7-------|--7-------7------------||
by chris njau wicked song
Tap to rate this tab
 
# A B C D E F G H I J K L M N O P Q R S T U V W X Y Z