Paganini Nicolo - Caprice 2 tab

#----------------------------------PLEASE NOTE---------------------------------#
#This file is the author's own work and represents their interpretation of the #
#song. You may only use this file for private study, scholarship, or research. #
#------------------------------------------------------------------------------#
#

Niccolo Paganini: Caprice No.24
Arranged for classical guitar by Gerald Garcia
CD : 'Romantic Guitar Favourites' (Paganini, Mendelssohn, Schubert)
by Gerald Garcia, 1992

four parts

0:00-56|---------------------------------|----||---------5---------------5-------|----||-2--225424-------2--225424-------|-0/-||-2-------6----64-2-------6-------|-/0-||-3----------77--73-----------7---|----||-5---------------5---------------|----|
|-5--5565---------3--3353----------------------------------------||-5------86----65-3------65----53-6-------5---------4553---------||-6-------7--77--74-------5--55--5---447545----54---22--42-------||---------7---------------5-------7-------7--77--73--2-----------||---------5---------------3-------5-------7------------------0---||-5---------------3----------------------------------------------|
|-5--5565---------3--3353----------------------------------------||-5------86----65-3------65----53-6-------5---------4553---------||-6-------7--77--74-------5--55--57----75-2--22542--22--42-------||---------7---------------5-------8--88--8--------3--2-----------||---------5---------------3-------5-------3------------------0---||-5---------------3----------------------------------------------|
_______ _____ _______|----8-12-8-------------4-7-4------------8-12-8---------------------|----||-10--------10\-5-----5-------5-------10--------10\-5-----5---------|----||-----------------5-------------4---------------------5---4---------|-0/-||-------------------7-------------6---------------------7-6---------|-/0-||-(0)-------------------------------7-(0)-----------------7---------|----||---------------------(0)---------------------------------------0---|----|
________ ________|----12-17-12-----------------------10-13----10-15-10--------------------8-12-||-14----------14\-10-------------10-------12----------12\-8------------8------||--------------------9------7-10----------0-----------------7--------9--------||----------------------11-0-----------------------------------9---10----------||-(0)-------------------------------------------------------------------------||---------------------------------------------------------------8-------------|
_____ ____|-13p10------------------12p8------------------1---0-------------|-----||-------12--------------------10-----------0-3-------------------|-----||----------13-10-----------------9-5-----------------1-2---------|-0//-||----------------12-9----------------7-----0-----2---------------|-//0-||---------------------11---------------7---------------------0---|-----||----------------------------------------8-----------------------|-----|...
2:25-52|------17-16-15-14-13-12-11-13p12-11-13-12-7--------||--------------------------------------------9------||-14-------------------------------------------9/13-||---------------------------------------------------||---------------------------------------------------||---------------------------------------------------|
|------17\-16-15-14-13-12-11-13-12-11-13-12--------|-----||--------------------------------------------------|-----||-14-------------------------------------------9---|-0//-||--------------------------------------------------|-//0-||--------------------------------------------------|-----||--------------------------------------------------|-----|
|------17-16-15-14-13-12-10-9-12----9-10-----------||--------------------------------10------10--------||-14----------------------------------------10\-7/-||--------------------------------------------------||--------------------------------------------------||--------------------------------------------------|
|-----15-14-13-12-11-10-8-7-10---7-8--------||------------------------------8-----8------||-12-----------------------------------9-5/-||-------------------------------------------||-------------------------------------------||-------------------------------------------|
|----13-12-11-10-9-8-7----12-11-10-9-8-7-5-||------------------------------------------||-10-------------------9-------------------||------------------------------------------||------------------------------------------||------------------------------------------|
|---------------------17-12---------------||-6p5-----------------------13----5-------||-----8-7-6p5-4----------------14---5-----||---------------6---------------------7..-||-----------------12----------------------||-----------------------------------------|...
3:55-5:35|-12h13p12--------5h7p5-7h8p7-4h5p4-0h1p0------||----------13----------------------------------||----------------------------------------------||-----------------------------------------2----||----------------------------------------------||----------------------------------------------|
|-12h13p12---------------------------------------|-12..----||----------13------------------------------------|---------||------------------------------------------------|-----0//-||------------------------------------------------|-----//0-||-----------------0h2p0-2h3p2-7h8p7-11h12p11-----|-0..-----||--------------------------------------------0---|---------|
|-12h13p12-----------------10h12p10---------------------||----------14-----10h11p10------------------------------||-------------------------------------------------------||-----------------------------------7h8p7-3h5p3-0h2p0---||-0-----------------------------------------------------||-------------------------------------------------------|
|-10h12p10---------------8h10p8-------------------||----------12-----8h10p8--------------------------||-------------------------------------------------||-------------------------------5h7p5-2h3p2-------||-10----------------------------------------3h5p3-||-------------------------------------------------|
|-10h12p10-13--------------8h10p8-12-------------||------------------------------------------------||------------------------------------------------||------------------------------------------------||------------------------------------------------||-10--------------10h12p10----------------8h10p8-|
|-10h12p10-------7h8p7-------------5h7p5-----|-------||--------------------------------------------|-------||--------------------------------------------|-0////-||--------------------------------------------|-////0-||--------------------------------------------|-------||----------7h8p7-------4h5p4-5h7p5-------5---|-------|
|-0---0---0---0---0---7--7---0---0---0---0---0---0---5---5---0---||-1---5---3---1---0---0--0---0---1---5---3---1---0---4---4---0---||-2---5---4---2------------------2---5---4---2-------------------||-----------------6------4---6-------------------6---3---2---2---||---------------------7------------------------------------------||----------------------------------------------------------------|
|----0--0-0-0-0-0-0-0-0-7-7-7-0-0-0-0-0-0-0-0-0-0-0-0-0-5-5-4-4-0--||---1----5---3---1---0---0---5---0---1---5---3---1---0---4---5---0-||--2---5---4---2-------------------2---5---4---2------------------1||------------------6-------4---6-------------------6---3---2---2---||-0--------------------7-------------------------------------------||------------------------------------------------------------------|
|---------0--0--0-0-10--10-12--12-13--13-10--10||----3---5--5----------------------------------||---4---7--6--6--6----10-----12-----14-----10--||--5---9-------7---0------0------0------0------||-0--------------------------------------------||----------------------------------------------|
|-----------------0-0-1-1-3-3-0-0----------------||-0-0-1-1-3-3-0-0-----------------6-6-3-3-5-5-6-6||------------------0---0---0---0---4---4---4---4-||--0---2---3---0-----0---2-------0---0---0---0---||----------------3-----------3-------------------||3---3---3---3-----------------------------------|
|--0----------------------5-5---5----5454---5-------------||---10-3---1-1-2-2---3----------------------5-------------||-------4---0---0----------5----5-----------5-------------||--------4-----------3------------------------------------||-3---2---0---0------5---6------7-----------7-------------||-----------------------------------0---------------5-----|
'pizzicato'|-8p5-------------7p4---10p7-------8p5-------------7p4-------------|----||-----5-----5---------5--------9-------5-----5---------5-5---------|----||-------5-----5--------------9---9-------5-----5-----------4-------|-0/-||---------7-----7--------------------------7-----7-----------6-----|-/0-||--------------------------------------------------------------7---|----||------------------------------------------------------------------|----|
|-12p9-5p0-------------10------------10p7-----------------8-----------||-------------------------10-6------------8p6---------------8-5-------||----------6p2-----------------7--------------7p4---------------5-----||--------------5p2-3p0----------------------------3p0-----------------||--------------------------------8p5------------------7p3---------7p3-||---------------------------------------------------------------------|
|-7-5-4------------------------------=---------------5p0---------|-----||-------6\5-3-------------------------10p6------12p9-------------|-----||-------------5-4-2-0------------------------------------5-------|-0//-||---------------------3-2-0--------------------------------7-----|-//0-||---------------------------3-2-0-8p5------11p7--------------0---|-----||----------------------------------------------------------------|-----|...
6:13-|---0---0---0---0-------___-----7-12-||---1---1---0---0---__----0---9------||---2-2-2---1-2------1---1--9--------||-2---2---2---2---------2------------||-3---3---2---0-----2-2--------------||-----------------4------------------|
|---0---0---7---5---0-12-7---0-------|-----||-----------5---5---0------9---0-----|-----||---2---2-------5----------------1---|-0//-||-----------6------2---------------2-|-//0-||-3---3------------------------------|-----||---------7---5---4------------------|-----|
___|---9----9-----10----12---___----5----5-10-||--------------------10-----6---6---6------||---9----9-----10----------7---7--7--------||-------------------------7--7-------------||---12---12----12-------5------------------||-9----9----10----12-----------------------|
|---7---7----8---10-----------____--------8-||-----------------0---_____------8------8---||---7---7----9----0-------9-----9-----9-----||---5---5---10----------10----10---10-------||---------------------10---10---------------||-7---7---8----10---8-----------------------|
|----10----10---8---7---5/---7---8-----14---||-------------------5---5/---9---10----13---||----10----10---9-------5/---7---9-----14---||----9-----9----7---6-----------------------||-------------------------------------------||-10----10----8---7---5----7---8----11------|
|---------5-8------------4-7-||-------5--------------5-----||-----5--------------4-------||---7--------------6---------||-7--------------------------||---------------0------------|
|-------------5-----------------------5-----------------------------------10--||-----------5---5-------------------5---5---------------------10-------10-----||---------5-------5---------------6-------6----------------10-------10--------||-------7-----------7-----------7-----------7---------7-12-------12-----------||-----7---------------7-------7---------------7-4-5/8-------------------------||-5h8-------------------8-5h9-------------------------------------------------|
|-----7-------10--------13-------7---|-----||-----6--------9--------12-------6---|-----||-----7-------10--------13-------7---|-0//-||------------------------------------|-//0-||------------------------------------|-----||-4-------7--------10--------4-------|-----|
|-------------5--------------------------5--9-5------------||-----------5---5---------------------5---------5----------||---------5-------5-----------------6-------------6--------||-------7-----------7-------------7-----------------7------||-----7---------------7--------7----------------------7----||-5h9-------------------9--5h9--------------------------9--|
|------------------9-12-9-----------------||---------------10--------10--------------||----------6/-9--------------9\--6--------||--------7-------------------------7------||-----7------------------------------7----||-5h9----------------------------------9--|
|------------------9/-12--17p12-9----------------------||---------------10----------------10-------------------||----------6/-9----------------------9---6-------------||--------7---------------------------------7-----------||-----7--------------------------------------7-4--0----||-5h9--------------------------------------------------|
|---------------------------------------------------5---||---------------------------------------------------5---||-3--2--3--2--3-2-3----3p2h3---3p2h3---3p2h3--------6---||---------------------------------------------------7---||-------------------0--------1-------0--------------7---||--------------------------------------------4--5---5---|Transcription by Pinter Denes(dpinter@eik.bme.hu)
0/ 0/// /0 : repeat last bar ///0 : repeat last three bars
----___---|----5-7---| shorter notes----------|
Note: many pull off and hammer on are unsigned From: letostak@netcom.com (Judy Letostak) Nicolo Paganini Caprice No. 24 Opus 1 letostak@netcom.com
|----------------------|----------------------|----------------------------||-------------------3--|-5p4h5p4--5-----------|-------------------3--------||-2p1h2p1--2--4--5-----|-------------7--5--4--|-2p1h2p1--2--4--5-----------||----------------------|----------------------|----------------------------||----------------------|----------------------|----------------------------||----------------------|----------------------|----------------------------|
|-------------------|-5p4h5p4--5--------------|----------------------------||-5p4h5p4--5--------|-------------8--6--5-----|-------------5--6-----------||-------------------|-------------------------|-7p6h7p6--7--------7--------||-------------7-----|-------------------------|----------------------------||-------------------|-------------------------|----------------------------||-------------------|-------------------------|----------------------------|
|----------------------|----------------------|----------------------------||-8p7h8p7--8--6--5-----|----------------5-----|-6p5h6p5--6-----------------||-------------------7--|-5p4h5p4--5--7-----5--|-------------7--5--4--------||----------------------|----------------------|----------------------------||----------------------|----------------------|----------------------------||----------------------|----------------------|----------------------------|
|----------------------|----------------------|----------------------------||-5p4h5p4--5-----------|-------------6--5-----|----------------------------||-------------5--4-----|-4p3h4p3--4-----------|----------------------------||-------------------7--|-------------------6--|-7p6h7p6--7-----------------||----------------------|----------------------|----------------------------||----------------------|----------------------|----------------------------|
||-12h13p12-----------------------|----------------------------------------|||-----------13---------10h12p10--|-12h13p12---9h10p9----------------------|||--------------------------------|--------------------9h10p9--------------|||--------------------------------|----------------------------------------|||--------------------------------|----------------------------7-----------|||--------------------------------|----------------------------------------|
|-12h13p12------------------------|---------------------------------------|||-----------13--------------------|---------------------------------------|||---------------------------------|---------------------13h14p13----------|||---------------------------------|-----------14h15p14------------14------|||----------------------12h14p12---|-14h15p14------------------------------|||---------------------------------|---------------------------------------||
Tap to rate this tab
 
# A B C D E F G H I J K L M N O P Q R S T U V W X Y Z