Pagans Mind - Hallo Spaceboy tab

Hallo Spaceboy
Pagan's Mind
God's Equation
By Tod Allgemeinen
Tuning: Standard

Here's the first tab of Hallo Spaceboy that i have tabbed out so if you see it 
anywhere else, its stolen.


Guitar 1 Intro|-------------------------||-------6-7---------------||----4--------3-----------||---------------6-7-------||-2-----------------------||----------5--------------|
Guitar 1|----------------------------------------||-------6-7----6-7-----3--------3--------||----4-------4---------------------------||------------------------6-7------6-7----||-2-----2--------------------------------||------------------5---------5-----------|x2
Guitar 2|---------------------------------------------||---------------------------------------------||---------------------------------------------||-97979797979797979/---5353535353535353535/---||-97979797979797979/---5353535353535353535/---||-97979797979797979/---5353535353535353535/---|
Guitar 10:51|----------------------------------------||-------6-7----6-7-----3--------3--------||----4-------4---------------------------||------------------------6-7------6-7----||-2-----2--------------------------------||------------------5---------5-----------|x2
After that part above01:17|--------------------------------------||----5--------2--------3-------3-------||------8-9------4-5------6-7------6-7--||--------------------------------------||--------------------------------------||-7--------4--------5-------4----------|
01:29|---------------------------------------------||---------------------------------------------||---------------------------------------------||-97979797979797979/---5353535353535353535/---||-97979797979797979/---5353535353535353535/---||-97979797979797979/---5353535353535353535/---|
02:08|--------------------------------||--------------------------------||--------------------------------||--------------------------------||-99-99-999-99-999-99-999-99-999-||-99-99-999-99-999-99-999-99-999-| .. .. ... .. ... .. ... .. ...
02:15|------------------------------------------||------------------------------------------||------------------------------------------||------------------------------------------||-99-99-999-99-999-99-999-99-999-12-12-12--||-99-99-999-99-999-99-999-99-999-12-12-12--|
|------------------------------------------||------------------------------------------||------------------------------------------||------------------------------------------||-55-55-555-55-555-55-555-55-555-88-888-88-||-55-55-555-55-555-55-555-55-555-88-888-88-|
02:27|------------------------------------------||------------------------------------------||------------------------------------------||------------------------------------------||-99-99-999-99-999-99-999-99-999-12-12-12--||-99-99-999-99-999-99-999-99-999-12-12-12--|
|------------------------------------------||------------------------------------------||------------------------------------------||------------------------------------------||-55-55-555-55-555-55-555-55-555-77-777-77-||-55-55-555-55-555-55-555-55-555-77-777-77-|
|--------------------------------------------------||--------------------------------------------------||--------------------------------------------------||------------------5-5-5-5-5-5-5-5-4-4-4-4-4-4-4-4-||-33-333-33-333-33-5-5-5-5-5-5-5-5-4-4-4-4-4-4-4-4-||-33-333-33-333-33-5-5-5-5-5-5-5-5-4-4-4-4-4-4-4-4-|
02:56|-------------------------------------------------------||-9--------9~~~---------9------9-------9----------9-----||-10-------10~~~--------10-----10------10---------10----||-----12-9--------12-9-----12-----12-9------12-9-----12-||-------------------------------------------------------||-------------------------------------------------------|Just keep repeating the solo
|---------------------------------------------||---------------------------------------------||---------------------------------------------||-97979797979797979/---5353535353535353535/---||-97979797979797979/---5353535353535353535/---||-97979797979797979/---5353535353535353535/---|
03:22|--------------------||--------------------||--------------------||-9-3-12-8-9-3-12-8--||-9-3-12-8-9-3-12-8--||-9-3-12-8-9-3-12-8--|
|-----------------------||-----------------------||-----------------------||-3-5-8-9-3-5--7-7-(5)--||-3-5-8-9-3-5--5-5-(3)--||-3-5-8-9-3-5-----------|
03:53|---------------------------------------------||7-7-7-7-77-6-6-6-6-66-3-3-3-3-33-2-2-2-2-22--||---------------------------------------------||---------------------------------------------||---------------------------------------------||---------------------------------------------|
04:18|-------------------------------------------------------||-9--------9~~~---------9------9-------9----------9-----||-10-------10~~~--------10-----10------10---------10----||-----12-9--------12-9-----12-----12-9------12-9-----12-||-------------------------------------------------------||-------------------------------------------------------|
|---------------------------------------------||---------------------------------------------||---------------------------------------------||-97979797979797979/---5353535353535353535/---||-97979797979797979/---5353535353535353535/---||-97979797979797979/---5353535353535353535/---|
These are all played without palm muting and they go straight forward without no little rythm.
|------------------------------------------||------------------------------------------||------------------------------------------||------------------------------------------||-99-99-999-99-999-99-999-99-999-12-12-12--||-99-99-999-99-999-99-999-99-999-12-12-12--|
|-----------------------------------||-----------------------------------||-----------------------------------||-----------------------------9-9-9-||-55-55-555-55-555-55-555-55--7-7-7-||-55-55-555-55-555-55-555-55--------|
|------------------------------------------||------------------------------------------||------------------------------------------||------------------------------------------||-99-99-999-99-999-99-999-99-999-12-12-12--||-99-99-999-99-999-99-999-99-999-12-12-12--|
|------------------------------------------||------------------------------------------||------------------------------------------||------------------------------------------||-55-55-555-55-555-55-555-55-555-88-888-88-||-55-55-555-55-555-55-555-55-555-88-888-88-|
|--------------------------------||--------------------------------||--------------------------------||--------------------------------||-99999999999-9999-9///////------||-99999999999-9999-9///////------|
Rate and Enjoy.:] Thx
Tap to rate this tab
 
# A B C D E F G H I J K L M N O P Q R S T U V W X Y Z