Pain – Dont Count Me Out tab

============================================================================

                     Don't Count Me Out
 
                           Pain

                    Dancing with the Dead
============================================================================


Tabbed by: John Moores
           mooresjw@mail.uc.edu

Tuning: Drop A  (A E A D F# B)


 *  = Palm Mute
 @  = Pinched harmonic
 x  = muted
(5) = natural harmonic on said fret
 b  = bend string
 r  = return string



Intro
0:20

|--------------------------------------------------------------------||--------------------------------------------------------------------||--------------------------------------------------------------------||--00-000-000-000-000-000-000-003--00-000-000-000-000-000-0-0-0-03---||--00-000-000-000-000-000-000-003--00-000-000-000-000-000-0-0-0-03---||--00-000-000-000-000-000-000-003--00-000-000-000-000-000-0-0-0-03---| ** *** *** *** *** *** *** ** ** *** *** *** *** *** * * * *
|--------------------------------------------------------------------||--------------------------------------------------------------------||--------------------------------------------------------------------||--00-000-000-000-000-000-000-003----00-000-000-000-000-000-000-003--||--00-000-000-000-000-000-000-003----00-000-000-000-000-000-000-003--||--00-000-000-000-000-000-000-003----00-000-000-000-000-000-000-003--| ** *** *** *** *** *** *** ** ** *** *** *** *** *** *** **
0:37
|------------------------------------------------------------||------------------------------------------------------------||------------------------------------------------------------||--------------------------1------0-1~--0-1~--0-1~--0-0-1-1--| |--------------------0-0-1-1------0-1~--0-1~--0-1~--0-0-1-1--||--0-1~--0-1~--0-1~--0-0-1-1------0-1~--0-1~--0-1~--0-0-1-1--| * * * * * * *
|------------------------------------------------------------||------------------------------------------------------------||------------------------------------------------------------||--0-1~--0-1~--0-1~--0-0-1-1---0-1~--0-1~--0-1~--0-0-1-1-----||--0-1~--0-1~--0-1~--0-0-1-1---0-1~--0-1~--0-1~--0-0-1-1-----||--0-1~--0-1~--0-1~--0-0-1-1---0-1~--0-1~--0-1~--0-0-1-1-----| * * * * * * *
Verse 1 0:55
|--------------------------------------------------------------------||--------------------------------------------------------------------||--------------------------------------------------------------------||--00-000-000-000-000-000-000-003----00-000-000-000-000-000-000-003--| x2|--00-000-000-000-000-000-000-003----00-000-000-000-000-000-000-003--||--00-000-000-000-000-000-000-003----00-000-000-000-000-000-000-003--| ** *** *** *** *** *** *** ** ** *** *** *** *** *** *** **
Pre-Chorus 1:12
|-----------------------------------------||-----------------------------------------||-----------------------------------------||-----------------------------------------| x4|-----------------------------000000------||--233332~--233332~--233332~--000000------|
Chorus 1:29
|---------------------------------------------------------------||---------------------------------------------------------------||---------------------------------------------------------------||----8----7----5-----8----7----5--------8----7----5----1--0--5--||----8----7----5-----8----7----5---5-7--8----7----5----1--0--5--||----8----7----5-----8----7----5---5-7--8----7----5----1--0--5--|
Post-Chorus 1:47
|------------------------------------------------------------||------------------------------------------------------------||------------------------------------------------------------||------------------------------------------------------------| x2|--0-0-0-0--00---0-0-0-000-0--0-0-0-0-00---0-0-0-000---------||--0-0-0-0--00---0-0-0-000-0--0-0-0-0-00---0-0-0-000---------| * * * * ** * * * *** * * * * * ** * * * ***
2:05|------------------------------------------------------------||------------------------------------------------------------||------------------------------------------------------------||--0-1~--0-1~--0-1~--0-0-1-1---0-1~--0-1~--0-1~--0-0-1-1-----| x2|--0-1~--0-1~--0-1~--0-0-1-1---0-1~--0-1~--0-1~--0-0-1-1-----||--0-1~--0-1~--0-1~--0-0-1-1---0-1~--0-1~--0-1~--0-0-1-1-----| * * * * * * *
Verse 2 2:22
|--------------------------------------------------------------------||--------------------------------------------------------------------||--------------------------------------------------------------------||--00-000-000-000-000-000-000-003----00-000-000-000-000-000-000-003--| x2|--00-000-000-000-000-000-000-003----00-000-000-000-000-000-000-003--||--00-000-000-000-000-000-000-003----00-000-000-000-000-000-000-003--| ** *** *** *** *** *** *** ** ** *** *** *** *** *** *** **
Pre-Chorus 2:39
|-----------------------------------------||-----------------------------------------||-----------------------------------------||-----------------------------------------| x4|-----------------------------000000------||--233332~--233332~--233332~--000000------|
(Pause) Chorus 2:59
|----------------------------------------------------------------||----------------------------------------------------------------||----------------------------------------------------------------||--8----7----5----8----7----5--------8----7----5----1--0--5--5-7-||--8----7----5----8----7----5---5-7--8----7----5----1--0--5--5-7-||--8----7----5----8----7----5---5-7--8----7----5----1--0--5--5-7-|
|---------------------------------------------------------------||---------------------------------------------------------------||---------------------------------------------------------------||----8----7----5-----8----7----5--------8----7----5----1--0--5--||----8----7----5-----8----7----5---5-7--8----7----5----1--0--5--||----8----7----5-----8----7----5---5-7--8----7----5----1--0--5--|
Post-Chorus (Repeat until the end) 3:34
Guitar I|------------------------------------------------------------||------------------------------------------------------------||------------------------------------------------------------||------------------------------------------------------------||--0-0-0-0--00---0-0-0-000-0--0-0-0-0-00---0-0-0-000---------||--0-0-0-0--00---0-0-0-000-0--0-0-0-0-00---0-0-0-000---------| * * * * ** * * * *** * * * * * ** * * * ***
Guitar II|------------------------------------------------------------||------------------------------------------------------------||---14t---9t-10t------/14t----9t--10t--------6t----9t--7t----||------------------------------------------------------------||------------------------------------------------------------||------------------------------------------------------------|
Please rate this tab:
x1.0