Panda - Casi Nula Autoestima tab

AfinaciĆ³n: bemolIntro R2D2:d#-------------------------------------|A#-------------------------------------|F#-11-11-11-14-14-14-11-11-11----------|C#----------------------------14-12-12-|G#-------------------------------------|D#-------------------------------------|
--------------------------------------| ---------14-14-14---------------------| 11-11-11----------11-11-11------------| ---------------------------14-12-12---| --------------------------------------| --------------------------------------|
d#-------------------------------------|A#-------------------------------------|F#-11-11-11-14-14-14-11-11-11----------|C#----------------------------14-12-12-|G#-------------------------------------|D#-------------------------------------|
--------------------------------------| --------------------------------------| 11-12-11-------11-12-11---------------| ---------14-12----------14-12-12h14-12| --------------------------------------| --------------------------------------|
PP:D#||--2---------3----0----||A#||--3---------3----2----||F#||--2----4----0----2----||C#||--0----4----0----2----|| TOCA ESTOS ACORDES TODA LA ROLAG#||--0----2----2----0----||D#||--0---------3----0----||VERSO:
D#||----------------------12--14--12--10--|-----------------9--7------|A#||----------10--------------------------|--------7--------------7---|F#||------11------11----------------------|-----7-----7-------------7-|C#||--12--------------12------------------|--9-----------9------------|G#||--------------------------------------|---------------------------|D#||--------------------------------------|---------------------------|
---------------------------------------------|---------------------------------------------|----------12---------------------12----------|------12------12-------------12------12------|--10--------------10-----10--------------10--|---------------------------------------------|
----------------------15---------------|-----||---------------------------------------|-----||----------14------------------14-------|-----||------14------14-----------------14----|-----||--12--------------12------12--------12-|-----||---------------------------------------|-----|| Y PP SIGUE CON LOS MISMO ACORDES SE REPITE POR 2 Y VA EL INTRO OTRA VEZ LUEGO OTRA VEZ Y VA ESTO
esto lo toca el bajo pero se oye bien con la gtr. |
|--------------------------||--10----------------------||--11----14----12----11----||--12----------------------||--------------------------||--------------------------|
-----------------------|------------------------|--7--------------------|--12--------------------|--7----11----9----7----|--12--------------------|--9--------------------|--12----9----------9----|-----------------------|--10---------10---------|-----------------------|------------------------|
-------------------------||--14---------------------||--14----12----11----9----||--14---------------------|| y pp deja sonar cada uno de los acordes que toca--12---------------------||-------------------------||eso va x2 y se repite el verso x2 luego se repite esto mismo pero en la segundaya no se hace los requintillo solo les haces p.m. a cada uno.acabando eso r2d2 toca estos acordes y pp se mantiene en los mismo acordes
|--------------------||--10----------------||--11----------------||--12----------------||--------------------||--------------------|
-------------------|--------------------|--------------------||--7----------------|--12----------------|--14----------------||--7----------------|--12----------------|--14----------------||--9----------------|--12----------------|--14----------------|| X4-------------------|--10----------------|--12----------------||-------------------|--------------------|--------------------||
para acabar el intro:y pp toca los mismo acordesd#-------------------------------------|A#-------------------------------------|F#-11-11-11-14-14-14-11-11-11----------|C#----------------------------14-12-12-|G#-------------------------------------|D#-------------------------------------|
--------------------------------------| ---------14-14-14---------------------| 11-11-11----------11-11-11------------| ---------------------------14-12-12---| --------------------------------------| --------------------------------------|
d#-------------------------------------|A#-------------------------------------|F#-11-11-11-14-14-14-11-11-11----------|C#----------------------------14-12-12-|G#-------------------------------------|D#-------------------------------------|
--------------------------------------| --------------------------------------| 11-12-11-------11-12-11---------------| ---------14-12----------14-12-12h14-12| --------------------------------------| --------------------------------------|
d#-------------------------------------|A#-------------------------------------|F#-11-11-11-14-14-14-11-11-11----------|C#----------------------------14-12-12-|G#-------------------------------------|D#-------------------------------------|
--------------------------------------| ---------14-14-14---------------------| 11-11-11----------11-11-11------------| ---------------------------14-12-12---| --------------------------------------| --------------------------------------|
d#-------------------------------------|A#-------------------------------------|F#-11-11-11-14-14-14-11-11-11----------|C#----------------------------14-12-12-|G#-------------------------------------|D#-------------------------------------|
esto no se si se toque al final pero se oye bien vapp toca el ultimo acorde | ---------------------------------------|---------| ---------------------------------------|---------| 11-12-11-------11-12-11----------------|11--11---| ---------14-12----------14-12-12h14-12-|--12--12-| ---------------------------------------|---------| ---------------------------------------|---------|
para acabar pp toca este acordes
--2----------------|--3----------------|--2----------------|--0----------------|--0----------------|--0----------------|
Dudas comentarios y/o mentadas de madre al correo: panda_vetealaverga@hotmail.com
Tap to rate this tab
 
# A B C D E F G H I J K L M N O P Q R S T U V W X Y Z