Panic At The Disco – When The Day Met The Night tab

When the Day met the Night
by Panic at the Disco
Pretty. Odd.
2008

Tuning: D G C F A d  (All Strings 1 step down)


   5*    7*   F#m    E     A   Dsus2

|--0--|--0--|--2--|--0--|--0--|--0--||--0--|--0--|--2--|--0--|--0--|--3--||--6--|--8--|--2--|--1--|--2--|--2--||--7--|--9--|--4--|--2--|--2--|--0--||--7--|--9--|--4--|--2--|--0--|--x--||--5--|--7--|--2--|--0--|--x--|--x--|
7 6 5 4 3
|--0--|--0--|--0--|--0--|--0--||--0--|--0--|--0--|--0--|--0--||--9--|--8--|--7--|--6--|--5--||--9--|--8--|--7--|--6--|--5--||--7--|--6--|--5--|--4--|--3--||--x--|--x--|--x--|--x--|--x--|
The little thing thats played through the whole song:
|-------------||-------------||--9----------||------9------||---------11--||-------------|
---------------------------------------------------------------------------- Intro:
|----------------------|------------|-----------------------||----------------------|------------|-----------------------||--9---------7----6----|------------|--/11----9----9~-------| |-------9--------------|--7----6----|-----------------------||----------------------|------------|-----------------------||----------------------|------------|-----------------------|
|------------------------||------------------------||------------------------||----------6---7---------||--7---9----------9---7--|
|----------------------|------------|-----------------------||----------------------|------------|-----------------------||--9---------7----6----|------------|--/11----9----9~-------| |-------9--------------|--7----6----|-----------------------||----------------------|------------|-----------------------||----------------------|------------|-----------------------||
---------------------------------------------------------------------------- Verse 1: 5* - 7* - F#m - E - A - Dsus2 - E - Dsus2 - F#m - E
|-----------------------||-----------------------||--9-----6/7------------||-----9-------7--6------||-------------------7---||-----------------------|
7 - 6 - 5 - 4 - 3 - A x2
|--8--6---------6--||---------6--8-----||------------------||------------------||------------------||------------------|
---------------------------------------------------------------------------- Chorus: Dsus2 - F#m - E - A - E - Dsus2 - F#m - E x2 Dsus2 - E - Dsus2 - F#m - E
|-----------------------||-----------------------||--9-----6/7------------||-----9-------7--6------||-------------------7---||-----------------------|
---------------------------------------------------------------------------- Verse 2: 7 - 6 - 5 - 4 - 3 - A x2
|--8--6---------6--||---------6--8-----||------------------||------------------||------------------||------------------|
---------------------------------------------------------------------------- Bridge: 2 - Em - 2 - Em ---------------------------------------------------------------------------- Chorus 2: Dsus2 - F#m - E - A - E - Dsus2 - F#m - E x2 Dsus2 - E - Dsus2 - F#m - E ____________________________________________________ Dsus2 - E - Dsus2 - F#m - E All Chords Played x8 ___________________________________________________ ---------------------------------------------------------------------------- Verse 1 (Copy): 5* - 7* - F#m - E - A - Dsus2 - E - Dsus2 - F#m Intro (Copy):
|----------------------|------------|-----------------------||----------------------|------------|-----------------------||--9---------7----6----|------------|--/11----9----9~-------| |-------9--------------|--7----6----|-----------------------||----------------------|------------|-----------------------||----------------------|------------|-----------------------|
|-------------||-------------||--9----------||------9------||---------11--||-------------|
|----------------------|------------|-----------------------||----------------------|------------|-----------------------||--9---------7----6----|------------|--/11----9----9~-------| |-------9--------------|--7----6----|-----------------------| Repeat ? times|----------------------|------------|-----------------------| too lazy 2 count|----------------------|------------|-----------------------|
Please rate this tab:
x1.0