Panic At The Disco - Theres A Reason These Tables Are Numbered Honey tab

Panic! At the Disco
There's A Reason These Tables are Numbered Honey
Standard Tuning
Tabbed by: Earwood


Verse|-----|-----------------------------------------------------5h7-5--5h7-5------------------||--8--|------8---7-------5--5--5-4-1---4---5---7--8--7-8-8--5---5--5---5---5--4--4-1------||--9--|------9---7---4---5--5--5-4-2---4---5---7--8--7-8-9-----------------5--4--4-2-4----||--9--|------9---7---5---5--5--5-4-2---4---5---7--8--7-8-9-----------------5--4--4-2-5-2--||--7--|--5-6-7---5---5---3--3--3-2-0---2---3---5--6--5-6-7-----------------3--2--2-0-5-2--||-----|--------------3---------------------------------------------------------------3-0--|
Chorus|------------------|------------------------------------------------------||-5--4--8--7-----4-|-5--4--4--x-x-x--5-5--x-x-x--4-4~--4--5--5--5-4-1-----| |-5--4--9--7--4--4-|-5--4--4--x-x-x--5-5--x-x-x--4-4~--4--5--5--5-4-2-4---||-5--4--9--7--5--4-|-5--4--4--x-x-x--5-5--x-x-x--4-4~--4--5--5--5-4-2-5-2-||-3--2--7--5--5--2-|-3--2--2--x-x-x--3-3--x-x-x--2-2~--2--3--3--3-2-0-5-2-||-------------3----|--------------------------------------------------3-0-|
Verse II|-------------------------------------||--8----10----10--9---8---10------4---||--9----9-----9---8---7---9---3---4--||--9----7-----7---6---5---7---4---4--||--7----7-----7---6---5---7---4---2--||-----------------------------2-------|
|-------------------------------------------------------------------------||------8---7-------5~---5--4--1----4----5----7---8----1----4--5-5-5-1-4---||------9---7---4---5~---5--4--2----4----5----7---8----2----4--5-5-5-2-4---||------9---7---5---5~---5--4--2----4----5----7---8----2----4--5-5-5-2-4---||--5-6-7---5---5---3~---3--2--0----2----3----5---6--0-0--2-2--3-3-3-0-2---||--------------3----------------------------------------------------------|
Chorus|-------------------------|--------------------------||---5--4----8--7------4---|-5--4--4--x-x-x---x-x-x---||---5--4----9--7--4---4---|-5--4--4--x-x-x---x-x-x---||---5--4----9--7--5---4---|-5--4--4--x-x-x---x-x-x---||---3--2----7--5--5---2---|-3--2--2--x-x-x---x-x-x---||-----------------3-------|--------------------------|
Breakdown |--------------------------------------| |--8-8--8-8---7-7--7-7---12-12--12-12--||--9-9--9-9---7-7--7-7---12-12--12-12--| |--9-9--9-9---7-7--7-7---12-12--12-12--||--7-7--7-7---5-5--5-5---10-10--10-10--||--------------------------------------|
|---------------------------------------------------||--5-5--5-5---1-1--1-1---4-4--4-4---8--8--8-8--x-8~-||--5-5--5-5---2-2--2-2---4-4--4-4---9--9--9-9--x-9~-||--5-5--5-5---2-2--2-2---4-4--4-4---9--9--9-9--x-9~-||--3-3--3-3---0-0--0-0---2-2--2-2---7--7--7-7--x-7~-||---------------------------------------------------|
|--------------------------------------| |--8-8--8-8---7-7--7-7---12-12--12-12--||--9-9--9-9---7-7--7-7---12-12--12-12--| |--9-9--9-9---7-7--7-7---12-12--12-12--||--7-7--7-7---5-5--5-5---10-10--10-10--||--------------------------------------|
|---------------------------------------------------||--5-5--5-5---1-1--1-1---4-4--4-4---8--8--8-8--x-8~-||--5-5--5-5---2-2--2-2---4-4--4-4---9--9--9-9--x-9~-||--5-5--5-5---2-2--2-2---4-4--4-4---9--9--9-9--x-9~-||--3-3--3-3---0-0--0-0---2-2--2-2---7--7--7-7--x-7~-||---------------------------------------------------|
(Haven't you heard...)|-------------------------------------| |--8----7---------5----1----4----0----| |--9----7----4----5----2----4----0----| |--9----7----5----5----2----4----2----||--7----5----5----3----0----2----2----||------------3-------------------0----|
|----------------------------------------| |--8----7---------5----1----4----5----7--| |--9----7----4----5----2----4----5----7--| |--9----7----5----5----2----4----5----7--||--7----5----5----3----0----2----3----5--||------------3---------------------------|
(And I know, and I know...)|------------------------------------||--8-8--8-8---7-7--7-7---------------||--9-9--9-9---7-7--7-7---4-4--4-4----| |--9-9--9-9---7-7--7-7---5-5--5-5----||--7-7--7-7---5-5--5-5---5-5--5-5----||------------------------3-3--3-3----|
|--------------------------------------------------||-5-5--5-5---1-1--1-1---4-4--4-4---8--8--8-8--x-8~-| |-5-5--5-5---2-2--2-2---4-4--4-4---9--9--9-9--x-9~-||-5-5--5-5---2-2--2-2---4-4--4-4---9--9--9-9--x-9~-||-3-3--3-3---0-0--0-0---2-2--2-2---7--7--7-7--x-7~-||--------------------------------------------------|
|------------------------------------||--8-8--8-8---7-7--7-7---------------||--9-9--9-9---7-7--7-7---4-4--4-4----| |--9-9--9-9---7-7--7-7---5-5--5-5----||--7-7--7-7---5-5--5-5---5-5--5-5----||------------------------3-3--3-3----|
|----------------------------------------------||-5~~----1-1--1-1---4-4--4-4---8--8--8-8--x-8~-| |-5~~----2-2--2-2---4-4--4-4---9--9--9-9--x-9~-||-5~~----2-2--2-2---4-4--4-4---9--9--9-9--x-9~-||-3~~----0-0--0-0---2-2--2-2---7--7--7-7--x-7~-||----------------------------------------------|
|--------------------------------------------| |--8----7---------5----1----4----10---7-8----| |--9----7----4----5----2----4----9----7-9----| |--9----7----5----5----2----4----9----7-9----||--7----5----5----3----0----2----7----5-7----||------------3-------------------------------|
Tap to rate this tab
 
# A B C D E F G H I J K L M N O P Q R S T U V W X Y Z