Pantera - Hollow tab

                                 HOLLOW
                                 PanterA
                          Vulgar Display Of Power

~ - let ring
v - vibrato
b - bend
r - release
h - hammer-on
p - pull-off
w\ - whammy bar down
w/ - whammy bar up
NH - Natural Harmonics

Tuning : E A D G B E

Intro        Clean Tone

0:01 0:08 0:16 0:23|-----------------------------||----0------0------0------0---||---5-5----5-5----5-5----5-5--||--2---2--2---2--2---2--2---2-| 4X|-0------3-------------0------||---------------3-------------|
Clean Tone (use any pick-up for better tone)
0:01|-----------------------------------------|----------------------------------------||-------------------12-15~--15br-15br-12~-|-------------------12-------------------||-----------12~--12-----------------------|-----------12~--12--------11v~------9v~-||--------14-------------------------------|--------14------------9~--------7~------||15~--15----------------------------------|15~--15---------------------------------||-----------------------------------------|----------------------------------------|
0:16|----------------------------------------|--------------------------------------------||-------------------12-15~--15br-13-15b~-|-------------------12-----------------------||-----------12~--12----------------------|-----------12~--12--------11v~------9b~rb-9~||--------14------------------------------|--------14------------9~--------7~----------||15~--15---------------------------------|15~--15-------------------------------------||----------------------------------------|--------------------------------------------|
0:31 0:38 0:45 0:53|-----------------------------||----0------0------0------0---||---5-5----5-5----5-5----5-5--||--2---2--2---2--2---2--2---2-| 4X |-0------3-------------0------||---------------3-------------|
1:00|-----------------------------------------------||----0-----0-----0-----0------0-----0------0----||---5-5---5-5---5-5---5-5----5-5---5-5----5-5---||--2---2-2---2-----0-----0------0-----0--2---2--||--------------3-----3------2-----2-------------||-0-----0-----2-----2------3-----3------0-----0-|
1:16|-------------------------------------------|---------------------------------------||-------------------12-15~--15br-13w\-12w/~-|------------------12-------------------||-----------12~--12-------------------------|----------12~--12--------11v~------9v~-||--------14---------------------------------|--------14-----------9~--------7~------||15~--15------------------------------------|15~--15--------------------------------||-------------------------------------------|---------------------------------------|
1:31|----------------------------------------|--------------------------------------------||-------------------12-15~--15br-13-15b~-|-------------------12-----------------------||-----------12~--12----------------------|-----------12~--12--------11v~------9b~rb-9~||--------14------------------------------|--------14------------9~--------7~----------||15~--15---------------------------------|15~--15-------------------------------------||----------------------------------------|--------------------------------------------|
1:47 1:54 2:02 2:10|-----------------------------||----0------0------0------0---||---5-5----5-5----5-5----5-5--||--2---2--2---2--2---2--2---2-| 4X |-0------3-------------0------||---------------3-------------|
2:17|-----------------------------------------------||----0-----0-----0-----0------0-----0------0----||---5-5---5-5---5-5---5-5----5-5---5-5----5-5---||--2---2-2---2-----0-----0------0-----0--2---2--||--------------3-----3------2-----2-------------||-0-----0-----2-----2------3-----3------0-----0-|
2:33|---------------------------------5------------------------------------------||-8br-5-8~--8br-5---5-----------5---8p5---5-------5--------------------------||-----------------8---8-7-5-7-8---------8---87578---8-7-5---5----------------||---------------------------------------------------------7---7--------------||----------------------------------------------------------------7-6-565--3--||----------------------------------------------------------------------------|
Crunchy sound, Distortion
2:40|--------------------------------------------------------||------20-20-20-------------20-------------20br-20-20b~--||-19br----------19br-19~~------19br-19~~-----------------||--------------------------------------------------------||--------------------------------------------------------||--------------------------------------------------------|
Clean Tone These are guesses2:48 2:53 2:58 2:48 2:57 3:08|----------------------------------| |------|-------------|-------------||----------------------------------| |------|-------------|-------------||---0------0------0----------------| |-NH---|-------------|-NH----------||--4-4----4-4----4-4-----0--0-----0| 3X |-19w\-|-NH----------|-12\/~\/\/\~-||-2---2--2---2--2---2---2-------0--| |------|-19w\/\/~\_/-|-------------||0------0------0-------3---1--1----| |------|-------------|-------------|
3:02|----------------------------------------||----------------------------------------||---0------0------0--0---0---0--0--0-----||--4-4----4-4----5------2---2------------||-2---2--2---2--7---5--4---3---2---------||0------0-------------------------3--1-0-|
3:08 3:13 3:18 3:22|---------------------------------------------||---------------------------------------------||---------------------------------------------||-2--2-2--2-2-2---------2--2-2--2-2-2---------| 4X|-2--2-2--2-2-2-55-7/8--2--2-2--2-2-2-77-9/10-||-0--0-0--0-0-0-33-5/6--0--0-0--0-0-0-55-7/8--|
3:27 3:29 3:32 3:34 |-------------------------------||-------------------------------||-------------------------------||-------------------------------| 4X|-------------------------------||-0-8-0-0-6-0-0-8-0-0-6--6-7-8~-|
3:37 3:42 |---------------------------------------------||---------------------------------------------||---------------------------------------------||-2--2-2--2-2-2---------2--2-2--2-2-2---------| 2X|-2--2-2--2-2-2-55-7/8--2--2-2--2-2-2-77-9-10-||-0--0-0--0-0-0-33-5/6--0--0-0--0-0-0-55-7/8--|
3:47 3:49 3:51 3:54|-------------------------------||-------------------------------||-------------------------------||-------------------------------| 4X|-------------------------------||-0-8-0-0-6-0-0-8-0-0-6--6-7-8~-|
3:56 4:01 4:00|----------------------------| |-5---||----------------------------| |---5-||---0--0----0---0---0--0-----| |both-||--5-------2---2-------------| 2X |-NH--||-7---5---4---3----2---------| |-----||---------------------3--1-0-| |-----|
4:04 4:09 4:13 4:18|------------------------------|--------------------------------||------------------------------|--------------------------------||------------------------------|--------------------------------||------------------------------|--------------------------------| 4X|------------------------------|--------------------------------||-0-8-0-0-6-0-0-8-0-0-6-0-0-6~-|-0-8-0-0-6-0-0-8-0-0-6--6-7-8~--|
4:23 4:25 4:28 4:30 4:32 4:35 4:37 4:40 |------------------------||------------------------||------------------------||------------------------| 8X|------------------------||-0-8-6--0-8-6--0-6-7-8--|
4:42|-------------------------------||-------------------------------||---0--0----0---0---0--0--------||--5-------2---2----------------||-7---5---4---3----2------------||---------------------3--1-0w\/-|
4:47|-----------------------------||-----------------------------||---0--0----0---0---0--0------||--5-------2---2-----------2~-||-7---5---4---3----2-------2~-||---------------------3--1-0~-| let ring until 4:59
4:53 NH NH NH|-----------12-||--------7-----||-----5--------||--------------||--------------||--------------|
5:00 5:05 5:10 5:15|----------------------------------------------------------||----------------------------------------------------------||----------------------------------------------------------||----------------------------------------------------------| 4X|----------------------------------------------------------||-0-8-0-0-6-0-0-8-0-0-6-0-666--0-8-0-0-6-0-0-8-0-0-6-0-678-|
5:20|-----------------------------------------------||-----------------------------------------------||-----------------------------------------------||-----------------------------------------------| |-----------------------------------------------||-0-8-0-8-0-8-0-8-0-8-0-11-0-11-0-11-0-11-0-11~-|
5:24 5:29 5:34 5:39|----------------------------------------------------------||----------------------------------------------------------||----------------------------------------------------------||----------------------------------------------------------| 4X|----------------------------------------------------------||-0-8-0-0-6-0-0-8-0-0-6-0-666--0-8-0-0-6-0-0-8-0-0-6-0-678-|
Fade Out at 5:34
Tap to rate this tab
 
# A B C D E F G H I J K L M N O P Q R S T U V W X Y Z