Pantera - Regular People tab

|------------------------------------------| |----PanterA - Regular People (Conceit)----| |--from the album Vulgar Display Of Power--| |-----(c) copyright 1992 Atco Records------| |------------------------------------------| (..and how to play it accurately..)
|--------------------------------------------------------------------------| |-Music by Dimebag Darrell, Vinnie Paul, Rex and Phil Anselmo--------------| |--Complete song with solo tabbed by Razor (using progressive Tab-Method 4 | |--by Robert "The Razor" Robertsen) ---------------------------------------| |-----------------------------------No music sheets used, all original work| |--------------------------------------------------------------------------| |-"Bridge 2" which sounds absolutely impossible is actually quite simple---| |--------------------------------------------------------------------------| |----Got a tab-request ? mail me l1nkpost@hotmail.com----------------------| |--------------------------------------------------------------------------|
note: ~~~~~~ means bend up and down exactly 6 times (x3) means play 3 times 3^5 means slide from 3rd. to 5th. fret . mute completely x muffled/feedback/slight touch or drag using pick (if you want this exact, loop the part on the track and start experimenting) |-\--| means slide down |-/--| means slide up (no shit)
|-\--| means slide multiple octaves using whammy bar |--\-| |---\|
INTRO (x8):
1|-----------|2|-----------|3|-----------|4|-----------|5|-----------|6|0-0-0-0-0-0|
CHORUS RIFF (x2):
1|-------------------------------|-------------------------------|2|-------------------------------|-------------------------------|3|-------------------------------|-------------------------------|4|--------3-2-------------2------|--------2-0-------------0------|5|--------------------2-3---3-0-1|--------------------0-1---1----|6|0---0-0-------0---0------------|0---0-0-------0-.-0---------1-3|
1|-------------------------------|-------------------------------|2|-------------------------------|-------------------------------|3|-------------------------------|-------------------------------|4|--------2-3-------------2------|----2-------3------------------|5|--------------------2-3---3----|----0-------1-------5-------3--|6|0---0-0-------0---0---------4--|0-0-----0-0-----0-0-3---0-0-1--|
BRIDGE 1 (x4):
1|-------------------------------|-------------------------------|2|-------------------------------|-------------------------------|3|-------------------------------|-------------------------------|4|-------------------------------|-------------------------------|5|2---2-2---2-2---2-2-2---2-\----|2---2-2---2-2---2-2-2---4-\----|6|0---0-0---0-0---0-0-0---3-\----|0---0-0---0-0---0-0-0---5-\----|
1|-------------------------------|-------------------------------|2|-------------------------------|-------------------------------|3|-------------------------------|-------------------------------|4|-------------------------------|-------------------------------|5|2---2-2---2-2---2-2-2---5-\----|7---7-7-8---8-8-5---5-5-3---1-1|6|0---0-0---0-0---0-0-0---6-\----|5---5-5-6---6-6-3---3-3-1---3-3|
BRIDGE 2:
(part I x3) (part II x1)1|-------------------------------|-------------------------------|2|-------------------------------|-------------------------------|3|-------------------------------|-------------------------------|4|-------------------------------|------------------------5------|5|4-----5-----4---5--------------|4-----5-----4---5---------7---~|6|5-0-0-6-0-0-5-0-6-0-3b--0------|5-0-0-6-0-0-5-0-6-0-3^5--------|
1|---------------------------|2|---------------------------|3|---------------------------|4|---------------------------|5|~-~-~-~-~-~-~(7)p0h12\-----|6|---------------------------|
* CHORUS RIFF (x2) VERSE RIFF 1
1|-------------------------------------------------------------------------|2|-------------------------------------------------------------------------|3|-------------------------------------------------------------------------|4|-------------------------------------------------------------------------|5|------------------------------------------------7---7-7-9---9-9-5---5-5-3|6|0------/-(bend whammy ca0,3-0,5 up)-\-----------5---5-5-7---7-7-3---3-3-1|
1|-------------------------------------------------------------------------|2|-------------------------------------------------------------------------|3|-------------------------------------------------------------------------|4|-------------------------------------------------------------------------|5|------------------------------------------------7---7-7-8---8-8-8---5-5-3|6|0-----------\-(bend whammy ca0,3-0,5 dn)-/------5---5-5-6---6-6-3---3-3-1|
* BRIDGE 1 (X2) BRIDGE 2B:
(part I x4) (part II x3)1|-------------------------------|-------------------------------|2|-------------------------------|-------------------------------|3|-------------------------------|-------------------------------|4|-------------------------------|-------------------------------|5|4-----5-----4---5--------------|4-----5-----4---5--------------|6|5-0-0-6-0-0-5-0-6-0-3b--0------|5-0-0-6-0-0-5-0-6-0-3b--0-.----|
(part III x1)1|---------------------------------------------------------|2|---------------------------------------------------------|3|---------------------------------------------------------|4|------------------------5--------------------------------|5|4-----5-----4---5---------7---~-~-~-~-~-~-~-~(7)x/10\----|6|5-0-0-6-0-0-5-0-6-0-3^5----------------------------------|
* CHORUS RIFF (X2) * VERSE RIFF 1 * BRIDGE 1 (X2) * BRIDGE 2B * CHORUS RIFF (X2) * INTRO RIFF (X8) PRE-SOLO:
(x4) (R,L,double)1|--------------------------|2|--------------------------|3|--------------------------|4|4------------x\--x//x--x//|5|3------------x\--x//x--x//|6|--------------------------|
SOLO:
1|12b(14)~~~~~~------14p12b(14)--r(12)------14-12b(14)r(12)-----------------|2|-------------14-13------------------14-13----------------14-13-14-12b(15)~|3|--------------------------------------------------------------------------|4|--------------------------------------------------------------------------|5|--------------------------------------------------------------------------|6|--------------------------------------------------------------------------|
(PRE:)
1|-------|2|-------|
3|-(5)/17|4|-------|5|-------|6|-------|
1|-----------------------------------|------------------14-------14-16---|2|------------------14-------14-16---|14-16-17-14-16-17----16-17-------17|3|14-16-17-14-16-17----16-17-------17|-----------------------------------|4|-----------------------------------|-----------------------------------|5|-----------------------------------|-----------------------------------|6|-----------------------------------|-----------------------------------|
(PRE:) (X6, 3PR.BAR)1|14-16-17-14-16-17-16h17p16p14----14-17b(20)~~~--|------17|1919-20-19-17|2|------------------------------15----------------|11/19---|-------------|3|------------------------------------------------|--------|-------------|4|------------------------------------------------|--------|-------------|5|------------------------------------------------|--------|-------------|6|------------------------------------------------|--------|-------------|
1|1919-20-19-17|19-20-19-17-20-17-20b(23)~~-20-17-------------|2|-------------|------------------19b(xx)---------17b(20)~~-x-|3|-------------|--------------------------------------------x-|4|-------------|--------------(feedback or somethin'here >)-x-|5|-------------|--------------------------------------------xx|6|-------------|--------------------------------------------xx|
1|20b(26)(w/bar)\---|2|---------------\--|3|----------------\-|4|- (divebomb:) ---\|5|- ( 4 bars ) --xx|5|------------------|
(x4) (R,L,double)1|--------------------------|2|--------------------------|3|--------------------------|4|6------------x\--x//x--x//|5|5------------x\--x//x--x//|6|--------------------------|
(3BEATS PR.BAR)1|--------|------------------------|----------------------|-----------|2|19------|19----19----19----19----|19------19----19------|19---------|3|18b(20)-|--(20)--(20)--(20)--(20)|--(19,5)--(19)--(18,5)|---18b(20)r|4|--------|------------------------|----------------------|-----------|5|--------|------------------------|----------------------|-----------|6|--------|------------------------|----------------------|-----------|
WHAMMY JERKING PART: (1st part doubled up on album version)1|----------------------------------------|2|----------------------------------------|3|18-/\__/-/\-_/-//\-/-/\-/\-/\ vibrate \-|4|---------------------------------------\|5|----------------------------------------|6|----------------------------------------|
1|----------------------------------------|2|----------------------------------------|
3|18b(16/18,5/18/18,5 vib,up,up(25),shake)|4|----------------------------------------|5|----------------------------------------|6|----------------------------------------|
POST-SOLO: (doubled up on album - use chorus)
1|-----------------------------------------------|2|-----------------------------------------------|3|-----------------------------------------------|4|-----------------------------------------------|5|-----------------------------------------------|6|6-\-1---1---1---1---1---1---1-1-1---1---1---1--|
(x2)1|-----------------------------------------------|2|-----------------------------------------------|3|3----------------------------------------------|4|-----------------------------------------------|5|-----------------------------------------------|6|0---1---1---1---1---1---1---1-1-1---1---1---1--|
1|-----------------------------------------------|2|-----------------------------------------------|3|3-----------3-----------3-----------3----------|4|-----------------------------------------------|5|-----------------------------------------------|6|0---1-1-0---0---1-1-0---0---1-1-0---0---1-1-1-0|
1|-----------------------------------------------|2|0----------------------------------------------|3|-----------------------------------------------|4|-----------------------------------------------|5|-----------------------------------------------|6|0----------------------------------------------|
BRIDGE 1B:
1|-------------------------------|-------------------------------|2|-------------------------------|-------------------------------|3|-------------------------------|-------------------------------|4|-------------------------------|-------------------------------|5|2---2-2---2-2---2-2-2---2-\----|2---2-2---2-2---2-2-2---4-\----|6|0---0-0---0-0---0-0-0---3-\----|0---0-0---0-0---0-0-0---5-\----|
1|-------------------------------|-------------------------------|2|-------------------------------|-------------------------------|3|-------------------------------|------------------------x/\----|4|-------------------------------|------------------------x/\----|5|2---2-2---2-2---2-2-2---5-\----|5-.---------------------x/\----|6|0---0-0---0-0---0-0-0---6-\----|6-.---------------------x/\----|
* CHORUS RIFF (X2) OUTTRO:
(PRE:) (x4)1|-------------------------------|-------------------------------|2|-------------------------------|-------------------------------|3|-------------------------------|-------------------------------|4|----2-------3------------------|----2-------3------------------|5|----0-------1-------5-------3--|----0-------1-------5-------3--|6|0-0-----0-0-----0-0-3---0-0-1--|0-0-----0-0-----0-0-3---0-0-1--|
(x3) (x1)1|-------------------------------|-------------------------------|2|-------------------------------|-------------------------------|3|-------------------------------|-------------------------------|4|-------------------------------|-------------------------------|5|-------------------------------|-------------------------------|6|5-5-0-7-0-0-4-0-6-0-2-0-3-4----|5-5-0-7-0-0-4-0-6-0-2-0-3-4-.--|
(..by now you oughtta be tired..) Tabbed sat.5th. of feb. 2005 by Razor in Northern Norway.
Tap to rate this tab
 
# A B C D E F G H I J K L M N O P Q R S T U V W X Y Z