Pantera - Rise tab

I dont know if this is accurate 
i learnt it by watching live clips and by ear.
hope it helps
and sorry no solo.




|--------------||--------------||--------------||--------11----||--------9-----||--0000--------| x8 PM ....
|---------------||---------------||---------------||-------5-------||-------5-------||--3333-3-------| x 8PM ....
|---------------||---------------||---------------||-------7-------||-------7-------||--5555-5-------| x8PM ....
|---------------| |--------------------||---------------| |--------------------||---------------| |--------------------||-------9-------| |--------------------||-------9-------| |--9-9-9-9-9---x//---||--7777-7-------| x4 |--7-8-7-8-7---x//---|PM ....
|---------------------------------------------||---------------------------------------------||---------------------------------------------||--5-x-x-x-3-x-5-x-x-x-3-x-5-x-x-x-3-x-5---6--||--5-x-x-x-3-x-5-x-x-x-3-x-5-x-x-x-3-x-5---6--||--3-x-x-x-1-x-3-x-x-x-1-x-3-x-x-x-1-x-3---4--| x2
GO!
|-------------------------------------------------------------------------------------||-------------------------------------------------------------------------------------||-------------------------------------------------------------------------------------||-------------------------------------------------------------------------------------||----1-2-----1-2----1-2-----1-2------1-2-----1-2--22-1----2-1---22-1------1-2-----1-2-||--3---0--33---0--3---0---3---0---33---0--33---0--00---3--0---3-00---3-33---0--33---0-|
|-----------||-----------||-----------||--5--3-----||--5--3-----||--3--1-----|
|-------------------------------------------------------------------------------------||-------------------------------------------------------------------------------------||-------------------------------------------------------------------------------------||-------------------------------------------------------------------------------------||----1-2-----1-2----1-2-----1-2------1-2-----1-2--22-1----2-1---22-1------1-2-----1-2-||--3---0--33---0--3---0---3---0---33---0--33---0--00---3--0---3-00---3-33---0--33---0-|
|-----------||-----------||-----------||--3--5/3---||--3--5/3---||--1--3/1---|
|-----------||-----------||-----------||-----------||--------2--||-00000--0--|
|---------------------------------------------||---------------------------------------------||---------------------------------------------||--5-x-x-x-3-x-5-x-x-x-3-x-5-x-x-x-3-x-5---6--||--5-x-x-x-3-x-5-x-x-x-3-x-5-x-x-x-3-x-5---6--||--3-x-x-x-1-x-3-x-x-x-1-x-3-x-x-x-1-x-3---4--| x2
|--------------||--------------||--------------||--------11----||--------9-----||--0000--------| x8 PM ....
|---------------||---------------||---------------||-------5-------||-------5-------||--3333-3-------| x 8PM ....
|---------------||---------------||---------------||-------7-------||-------7-------||--5555-5-------| x8PM ....
|---------------| |--------------------||---------------| |--------------------||---------------| |--------------------||-------9-------| |--------------------||-------9-------| |--9-9-9-9-9---x//---||--7777-7-------| x4 |--7-8-7-8-7---x//---|PM ....
|---------------||---------------||---------[7]~--||---------------||-22-2----------||-00-0----------| x4
|-------------------------------------------------------------------||-------------------------------------------------------------------||-------------------------------------------------------------------||------------------------------------------x-3-x-5-x-3-x-5-5/3------||----1-2-----1-2----1-2-----1-2------1-2---x-3-x-5-x-3-x-5-5/3------||--3---0--33---0--3---0---3---0---33---0---x-1-x-3-x-1-x-3-3/1------|
2nd Verse:
|-------------------------------------------------------------------------------------||-------------------------------------------------------------------------------------||-------------------------------------------------------------------------------------||-------------------------------------------------------------------------------------||----1-2-----1-2----1-2-----1-2------1-2-----1-2--22-1----2-1---22-1------1-2-----1-2-||--3---0--33---0--3---0---3---0---33---0--33---0--00---3--0---3-00---3-33---0--33---0-|
|-----------||-----------||-----------||--5--3-----||--5--3-----||--3--1-----|
|-------------------------------------------------------------------------------------||-------------------------------------------------------------------------------------||-------------------------------------------------------------------------------------||-------------------------------------------------------------------------------------||----1-2-----1-2----1-2-----1-2------1-2-----1-2--22-1----2-1---22-1------1-2-----1-2-||--3---0--33---0--3---0---3---0---33---0--33---0--00---3--0---3-00---3-33---0--33---0-|
|-----------||-----------||-----------||--3--5/3---||--3--5/3---||--1--3/1---|
|-----------||-----------||-----------||-----------||--------2--||-00000--0--|
|---------------------------------------------||---------------------------------------------||---------------------------------------------||--5-x-x-x-3-x-5-x-x-x-3-x-5-x-x-x-3-x-5---6--||--5-x-x-x-3-x-5-x-x-x-3-x-5-x-x-x-3-x-5---6--||--3-x-x-x-1-x-3-x-x-x-1-x-3-x-x-x-1-x-3---4--| x2
|--------------||--------------||--------------||--------11----||--------9-----||--0000--------| x8 PM ....
|---------------||---------------||---------------||-------5-------||-------5-------||--3333-3-------| x 8PM ....
|---------------||---------------||---------------||-------7-------||-------7-------||--5555-5-------| x8PM ....
|---------------| |--------------------||---------------| |--------------------||---------------| |--------------------||-------9-------| |--------------------||-------9-------| |--9-9-9-9-9---x//---||--7777-7-------| x4 |--7-8-7-8-7---x//---|PM ....
|---------------||---------------||---------[7]~--||---------------||-22-2----------||-00-0----------| x4
((((((SOLO))))))))
|------------------------||------------------------||------------------------||--8-8-88-8-8-88---------||--6-6-66-6-6-66---------||------------------------| < play that between each break in the solo.
|---------------------------------------------||---------------------------------------------||---------------------------------------------||------------------------------8-8-88-8-8-88--||-2----------------------------6-6-66-6-6-66--||-0-0-0-0-0-0-0-0--00000000000----------------| x4
|---------------------------------------------||---------------------------------------------||---------------------------------------------||--5-x-x-x-3-x-5-x-x-x-3-x-5-x-x-x-3-x-5---6--||--5-x-x-x-3-x-5-x-x-x-3-x-5-x-x-x-3-x-5---6--||--3-x-x-x-1-x-3-x-x-x-1-x-3-x-x-x-1-x-3---4--| x2
|--------------||--------------||--------------||--------11----||--------9-----||--0000--------| x8 PM ....
|---------------||---------------||---------------||-------5-------||-------5-------||--3333-3-------| x 8PM ....
|---------------||---------------||---------------||-------7-------||-------7-------||--5555-5-------| x8PM ....
|---------------| |--------------------||---------------| |--------------------||---------------| |--------------------||-------9-------| |--------------------||-------9-------| |--9-9-9-9-9---x//---||--7777-7-------| x4 |--7-8-7-8-7---x//---|PM ....
|---------------||---------------||---------[7]~--||---------------||-22-2----------||-00-0----------| x4
|-------------------------------------------------------------------------------------||-------------------------------------------------------------------------------------||-------------------------------------------------------------------------------------||-------------------------------------------------------------------------------------||----1-2-----1-2----1-2-----1-2------1-2-----1-2--22-1----2-1---22-1------1-2-----1-2-||--3---0--33---0--3---0---3---0---33---0--33---0--00---3--0---3-00---3-33---0--33---0-|
pretty sure thats it. any questions email me deathlegend_9@hotmail.com
Tap to rate this tab
 
# A B C D E F G H I J K L M N O P Q R S T U V W X Y Z